Give Kudos?
Are you sure you want to give kudos to mooman2679?

Add To Songbook?
Are you sure you want to add this song to your songbook?


2,862 bands | 36,210 songs
Search: Register FREE! | Login
Browse Songs:
Browse Bands:
Tool Panel
Discuss This Song

1 2 3 4 5



Brad Paisley - Out In The Parking Lot (with Alan Jackson) (Solo)
Album: TIme Well Wasted (2005)
Submitter: mooman2679 (2) on 8/21/05
Month Views: 17 | Total Views: 5,452
Moderator: Ray Terry | Report This Song?
Song Tools

Comment

Songbook

Kudos

Show Chords

Print

Awesome song!  Great remake and Brad singing with Alan Jackson...How could it get better???



The 7 marked with the * is a half dead note...kinda palm muted...


Tyler

mooman2679 at gmail.com


.................................................................................
rbh = Release, then bend and hold

bnbh = Behind nut bend and hold

PM = Palm-Mute

pbr = Pre-bend Release
..................................................................................




Drop D Tuning

e-----------------------------------------------0-2-3-5-7-9-10-12-14--15brbrbr--
B------------------------------------------3-5-3--------------------------------
G-----2----2----2---------0-----------2---4------2---4---7----------14----------
D--2bh-2rbh-2rbh-2r~-0bnbh-0r--0h2-0PM-2PM--------------------------------------
A-------------------------------------------------------------------------------
E----------------------------0--------------------------------------------------

                                   *                            
e--15p12-----12~-12p10-------------7-----------------------------------
B-------15p12---------12p10-12-10bh-10r--------------------------------
G--------------------------------------11-9h11-9br-7-------------------
D----------------------------------------------------7-----------------
A-----------------------------------------------------7br-5-5h7p5~\----
E----------------------------------------------------------------------


e---0-------10--10--------------------
B--10-10----10--10--7-----------------
G-----9pbr--9bh-9r--7--2---2~~--------
D----------------------2bh-2r~--------
A-------------------------------------
E-------------------------------------
 Comments (click here to add a non-facebook comment)
Home | FAQs | Privacy | Terms | Advertise | Contact
Top 100 Tab Sites