Give Kudos?
Are you sure you want to give kudos to livewire8?

Add To Songbook?
Are you sure you want to add this song to your songbook?


2,732 bands | 35,202 songs
Search: Register FREE! | Login
Browse Songs:
Browse Bands:
Tool Panel
Discuss This Song

1 2 3 4 5



Brad Paisley - She's Everything (ending) (Tab)
Album: TIme Well Wasted (2005)
Submitter: livewire8 (0) on 7/6/11
Month Views: 2 | Total Views: 3,458
Moderator: Ray Terry | Report This Song?
Song Tools

Comment

Songbook

Kudos

Show Chords

Print

Brad Paisley- She's Everything

b=bend 
r=release 
h=hammer on 
p=pull off 
v=vibrato 
s=slide 
/=slide up 
\=slide down

ENDING:
e----------------------------0---------------------
B--------------------10--------13p10-0-10----10----
G-12b-12-10p9-----------12bv--------------10-------
D-------------10-12b-------------------------------
A--------------------------------------------------
E--------------------------------------------------

e--------------------------------------------------
B----------------15b-15-12-15-12v-----------0------
G-12v-9----9v-9\------------------12----12v--------
D-------12---------------------------14-------9----
A--------------------------------------------------
E--------------------------------------------------

e----------------------------13-15b----15----17s19-
B----------------12-------13--------15----15-------
G-------12-10-12----10-14--------------------------
D-10-12--------------------------------------------
A--------------------------------------------------
E--------------------------------------------------

e----17-19----20-20v-20\-20b-20-20-19-17-----------
B-17-------17----------------------------20--------
G-------------------------------------------17-----
D--------------------------------------------------
A--------------------------------------------------
E--------------------------------------------------

e-------------------15----------15----------15v----
B-20bv-20\-------17----------17----------17--------
G-------------17----------17----------17-----------
D----------17----------17----------17-----------17-
A--------------------------------------------------
E--------------------------------------------------

e--------------------------------------------------
B----17-8vp17----13-15brbrp13-------13h15-15s10----
G-17----------12--------------12-------------9-----
D--------------------------------14----------------
A--------------------------------------------------
E--------------------------------------------------

e-----5p3------------------------------------------
B-10\-5p3-------3-------------------------5-6s8s6v-
G-9-\-----5p3---4-4b-5p4p2p0---0----------5-7s9s7v-
D-------------5--------------3---2-2/--------------
A-------------------------------------3s5----------
E--------------------------------------------------

e--------------------------------------------------
B-------5h6-----8-8-10-10s12-12-----5-6s8s6v-------
G-5p0---5h7-7s9---9-10-10s12-12-----5-7s9s7v-5p0---
D-----7------------------------------------------7-
A-------------------------------3s5----------------
E--------------------------------------------------

e--------------------------------------------------
B-5h6-----8-8-10-10s12-12--------------------------
G-5h7-7s9---9-10-10s12-12--------------------------
D--------------------------------------------------
A--------------------------------------------------
E--------------------------------------------------
 Comments (click here to add a non-facebook comment)
Home | FAQs | Privacy | Terms | Advertise | Contact
Top 100 Tab Sites