Give Kudos?
Are you sure you want to give kudos to livewire8?

Add To Songbook?
Are you sure you want to add this song to your songbook?


2,728 bands | 35,169 songs
Search: Register FREE! | Login
Browse Songs:
Browse Bands:
Tool Panel
Discuss This Song

1 2 3 4 5



Brad Paisley - She's Everything (Solo)
Album: TIme Well Wasted (2005)
Submitter: livewire8 (1) on 7/6/11
Month Views: 18 | Total Views: 3,064
Moderator: Ray Terry | Report This Song?
Song Tools

Comment

Songbook

Kudos

Show Chords

Print

Brad Paisley- She's Everything

b=bend 
r=release 
h=hammer on 
p=pull off 
v=vibrato 
s=slide 
/=slide up 
\=slide down

SOLO:
e---5---------------------------------------------
B-8------------------------------8br-5-8----------
G-----7brbr---------7brp5vh7p5-----------7br-7/---
D-----------5-5-5-5------------5------------------
A-------------------------------------------------
E-------------------------------------------------

e----------------------15-17-17br-15v-17-17brp15--
B----------------15s17----------------------------
G----17-19b-19br----------------------------------
D-17----------------------------------------------
A-------------------------------------------------
E-------------------------------------------------

e-12-13-15-15brp13--------------------------------
B------------------15brp13-15brbr-13v-------------
G-------------------------------------------------
D-------------------------------------------------
A-------------------------------------------------
E-------------------------------------------------
 Comments (click here to add a non-facebook comment)
Home | FAQs | Privacy | Terms | Advertise | Contact
Top 100 Tab Sites