Give Kudos?
Are you sure you want to give kudos to mooman2679?

Add To Songbook?
Are you sure you want to add this song to your songbook?


2,862 bands | 36,210 songs
Search: Register FREE! | Login
Browse Songs:
Browse Bands:
Tool Panel
Discuss This Song

1 2 3 4 5



Brad Paisley - Thats Love (correct Full Intro) (Intro)
Album: Mud on the Tires (2003)
Submitter: mooman2679 (2) on 3/16/05 7 comments
Month Views: 12 | Total Views: 6,135
Sound Byte: Listen
Moderator: Ray Terry | Report This Song?
Song Tools

Comment

Songbook

Kudos

Show Chords

Print

This is the full intro to "Thats Love"  
The third line, most the notes are barelly auditable...So give me some slack on those...

I posted jWill's verson of the main intro riff at the bottom, sence its also part 
of the intro and is included in my soundbyte!

Comments appreciated

*=Palm Mute

                          
e--------------------------------------------------
B------5-------------------------------------------
G--------7-----------------------------------------
D----------7~p5p0--7---5/6-------------------------
A--5/7-----------0---0-----7--0-5-0-5-7-4b-0-------
E--------------------------------------------------
                     *        *


e--------------------------------------------------
B-------------------------5------------------------
G---6--6-6p4\2--2h4p2------------------------------
D--7-7----------------4/6--------------------------
A--------------------------------------------------
E--------------------------------------------------



e--------------------------------------------------
B--------------------------------------------------
G--2b----------------------------------------------
D------2b------------------------------------------
A---------2b------5------------0-------------------
E--------------4b---7b-----------12\---------------

                   

                    Main Riff
e--------------------------------------------------
b--------------------------------------------------
g--------------------------------------------------
d-------------------2--------------2--5p4p2-4------
a-----------2-5-2-5--------0-0-h2h3----------------
e---0-0-h2h3---------------------------------------


e--------------------------------------------------
b--------------------------------------------------
g-------------------------2-2-2--4-4-4-------------
d-------------------2-----2-2-2--4-4-4-------------
a-----------2-5-2-5-------0-0-0--2-2-2-------------
e---0-0-h2h3---------------------------------------
 Comments (click here to add a non-facebook comment)
Sounding good man!
-logansams | 3/17/2005
Sounds awesome.
-sweethomealabam | 4/18/2005
great tab
-tonyjay87 | 5/21/2005
is there a wayto download the soundbytes to my computer and listen to them offline?
-tonyjay87 | 5/21/2005
yes, rioght click the option next to the speaker and put "save target as."
-mooman2679 | 5/21/2005
Awesome job! I've been wanting to learn this one for awhile.
-sclan2 | 1/28/2006
Sounds good to me. Another way to play it would be like this (Same note, just using open D string):

e-----------------------------------------------------------
b-----------------------------------------------------------
g-----------------------------------------------------------
d------------------0----0--2---------------2--5p4p2-4---
a---------------2----2----------0-0-h2h3-----------------
e---0-0-h2h3----------------------------------------------
-hybridrocknroll | 4/13/2011
Home | FAQs | Privacy | Terms | Advertise | Contact
Top 100 Tab Sites