Give Kudos?
Are you sure you want to give kudos to the legend?

Add To Songbook?
Are you sure you want to add this song to your songbook?


2,830 bands | 35,974 songs
Search: Register FREE! | Login
Browse Songs:
Browse Bands:
Tool Panel
Discuss This Song

1 2 3 4 5



Brad Paisley - That's Love (Tab)
Album: Mud on the Tires (2003)
Submitter: the legend (1) on 7/23/03 3 comments
Month Views: 21 | Total Views: 6,373
Moderator: Ray Terry | Report This Song?
Song Tools

Comment

Songbook

Kudos

Show Chords

Print

this is just the main parts of the song/

intro
(0:00) to (0:05)

e-----------------------------------------
b------5----------------------------------
g-------7---------------------------------
d----7---7--------7~----5-----------------
a-/7-------10p7p0-----5---7--5-5-5-7-5/0--
E-----------------------------------------

From (0:06) to (0:13)
I'll have to post this later.
It's 12:30 at night here and I" too tired to try to pick 
out the guitar out of everything that's going on in those
brief seconds.

the main Part of the song is

e------------------------------------------------
b------------------------------------------------
g------------------------------------------------
d-----------------------------------2-5p4p2-4----
a--------------2-5-2-5-/7---0-0-3h4--------------
E--15/--0-0-3h4----------------------------------

e-------------------------------------
b-------------------------------------
g-----------------------2-2-2--4-4-4--
d-----------------------2-2-2--4-4-4--
a----------2-5-2-5-/7---0-0-0--2-2-2--
E--0-0-3h4----------------------------


That's all for me I'm falling asleep at the computer.

I'll figure the rest out and tab it later.

Good Night All,

Chad "The Legend" Wall
 Comments (click here to add a non-facebook comment)
u hit it right on. good job man.
-neonrt | 2/27/2004
Hell yeah! I give this a 10
-WildCard76 | 8/10/2004
The intro isn't quite right, and try playing open stings instead of at the 5th fret. It makes the song easier to play and just sounds better.
-logansams | 12/11/2004
Home | FAQs | Privacy | Terms | Advertise | Contact
Top 100 Tab Sites