Give Kudos?
Are you sure you want to give kudos to axehappy?

Add To Songbook?
Are you sure you want to add this song to your songbook?


2,679 bands | 34,864 songs
Search: Register FREE! | Login
Browse Songs:
Browse Bands:
Tool Panel
Discuss This Song

1 2 3 4 5





Brad Paisley - The Nervous Breakdown (part 1) (Tab)
Album: Who Needs Pictures-Part II (2008)
Submitter: axehappy (115) on 2/27/02 5 comments
Month Views: 21 | Total Views: 16,981
Sound Byte: Listen
Moderator: Ray Terry | Report This Song?
Song Tools

Comment

Songbook

Kudos

Show Chords

Print

Brad Paisley - The Nervous Breakdown (Part 1)

By axehappy - axehappy at countrytabs.com

This part is from the start up to about [1:04] into the song.
It ends at the point where the music stops dead and there is a little
banjo fill.

Any parts that start and end with : are to be repeated once.

ENJOY!


***********************************************************************

p   =   pulloff                             /   =   slide up

b   =   bend                                h   =   hammer-on

~   =   vibrato                             br  =   bend & release

bh  =   bend & hold                         r   =   release bend

\   =   slide down                          

***********************************************************************


Acoustic guitar (intro)

E--3p0-0------------------------------------------------
B-----6-3p0-0-------------------------3--------3--------
G----------5-3p0-0---------5-3b---5-3-2h3p2p0--2h3p2p0--
D---------------5-3p0-0----------------------3--------3-
A--------------------0--3/7-5--3/7-5--------------------
E-------------------------------------------------------


E-------------------------|
B-------------------------|
G--3p2p0-2p0--------------|
D-------3---3p2p0---------|
A----------------3p2p0----|
E---------------------3---|



Electric Guitar

E:--3p0-0------------------------------3p0-0--------------------------
B:-----6-3p0-0----------------------------6-3p0-0---------------------
G:----------5-3p0-0---------5-3b---5-3---------5-3p0-0---------7-6-5--
D:---------------5-3p0-0----------------------------5-3p0-0-----------
A:--------------------0--3/7-5--3/7-5--------------------0--5/9-8-7---
E:--------------------------------------------------------------------


E--3p0-0-------------------------------------------------------------:|
B-----6-3p0-0--------------------------------------------------------:|
G----------5-3p0-0---------5-3b---5-3b-5p3-0-0-----------------------:|
D---------------5-3p0-0-------------------5-5-3p0-0h3----------------:|
A--------------------0--3/7-5--3/7-5-----------------5-4-3-1h2-------:|
E---------------------------------------------------------3---3~~~~--:|

                                                              rake
E----------------------------------------------------------------------
B----------------------------------------------------------------------
G-----------0-2-2bh-2r-0-------------------0-2-2bh-2r-0----------------
D-------2-4--------------4-2~~-0-------2-4--------------4-2---2-4-5-4--
A-----------------------------------------------------------3-3-5-7-5--
E--2br----------------------------2br----------------------------------


E----------------------------------------------------------------0-
B-----3----------------------------3-------------------------------
G--------------0-2-2bh-2r-0-------0--0-----------------2---0-4-4b--
D--2/4-----2-4--------------4-2--2----------------------0-4-2-2----
A-------5\----------------------3---------------0--0-4b------------
E-------------------------------------3~~~--3-4b-------------------


E-------------------------------|
B--------------5----------------|
G--------5-7-7b----7-7-9-9b~~~~-|
D-------5----------7------------|
A--0-5/7--------7/9-------------|
E-------------------------------|


E--3p0-0------------------------------3p0-0--------------------------
B-----6-3p0-0----------------------------6-3p0-0---------------------
G----------5-3p0-0---------5-3b---5-3---------5-3p0-0---------7-6-5--
D---------------5-3p0-0----------------------------5-3p0-0-----------
A--------------------0--3/7-5--3/7-5--------------------0--5/9-8-7---
E--------------------------------------------------------------------


E--3p0-0--------------------------------------------------------
B-----6-3p0-0---------------------------------------------------
G----------5-3p0-0---------5-3b---5-3b-5p3-0-0------------------
D---------------5-3p0-0-------------------5-5-3p0-0h3-----------
A--------------------0--3/7-5--3/7-5-----------------5-4-3-1h2--
E---------------------------------------------------------3---3-


E---------------|
B---------------|
G------------0--|
D-------0h2p0---|
A--0h1/2--------|
E---------------|
 Comments (click here to add a non-facebook comment)
go to tallstrom.com transcr i ption 2. it shows you how to play parts
of it. i Think it is pretty acurrate. THe begining sounds exactly
like the song. also it has pretty cool rockabilly songs. Peace
out!!!!!!!!!!!!!
-silasathuong | 5/31/2003

-logansams | 11/23/2004
pretty good work can anyone really play this at full speed
-im4562@msn.com | 4/1/2005
Good job axe! Only 1 or 2 little things that I might change. Gave it a 9.
-eric wilson | 4/8/2005
This is excellent work. Several ways to play this comfortably, but the notes are bang on. It's a 10!
-bbuubblleess | 8/16/2005
Home | FAQs | Privacy | Terms | Advertise | Contact
Top 100 Tab Sites