Give Kudos?
Are you sure you want to give kudos to axehappy?

Add To Songbook?
Are you sure you want to add this song to your songbook?


2,679 bands | 34,864 songs
Search: Register FREE! | Login
Browse Songs:
Browse Bands:
Tool Panel
Discuss This Song

1 2 3 4 5





Brad Paisley - The Nervous Breakdown (part 2) (Tab)
Album: Who Needs Pictures-Part II (2008)
Submitter: axehappy (115) on 2/27/02
Month Views: 20 | Total Views: 8,444
Moderator: Ray Terry | Report This Song?
Song Tools

Comment

Songbook

Kudos

Show Chords

Print

Brad Paisley - The Nervous Breakdown (Part 2)

By axehappy - axehappy at countrytabs.com

This part begins just after the little banjo fill at about [1:04] into
the song.
It ends just before the piano solo, about [2:07] into the song.

ENJOY!

***********************************************************************

bh   =   bend & hold                          r   =   release bend

p    =   pulloff                              h   =   hammer-on

/    =   slide up                             br  =   bend & release

~    =   vibrato                              \   =   slide down

x    =   dead note                            !   =   harmonic

pbr  =   pre-bend & release                   

***********************************************************************


Electric guitar

E----------------------------------------------------------------------
B-----3-3--------------------------------------------------------------
G--2bh-2-2r-0--3p2p0-2p0-0-----------------------0---------------------
D-------------------3---3--3-2p0-2p0-0----------0-----4p0-5p0-6p0-7p0--
A-------------------------------3---3--3p2p0-1h2---3/5-----------------
E-------------------------------------------3--------------------------


E---------------------------------------------------------------
B---------------------------------------------------------------
G---------7~~--10p9p7-9-8p7p5-7p5-5-----------------------------
D--9p0-7h9-----8-------------7---7-8p7p5--5p0h2-3p0-2p0-0-------
A---------------------------------------7----------3---3--3p2p0-
E---------------------------------------------------------------


E--------------------------------------------3-----------
B-----------------------------------3p0-5p3---5/8-8~~----
G----------------------2-5p2-0h2-3/4--------5------------
D-------------2p0-2h4h5----------------------------------
A--3p2p0-2-3/5-------------------------------------------
E----------------------------------------------------8\--


E----------------------------------------------------------------------
B-----0-3-------0-3-----------3-1---------3-0-----0-3---------0-3------
G--2/4-4--0--2/4-4--0--3/5-5-5-0-0-3/5-5-5-0-0-2/4-4-0-4p0-2/4-4-0-3p0-
D--------5-5-------5-5-------------------------------------------------
A----------------------------------------------------------------------
E----------------------------------------------------------------------


E---------------------------------------------------------------------
B---------------------------1p0-1p0-----------------------------------
G--5p0-0-4p0-0-2brbrb-p0-2b--------0-2p0-2p0-2p0-3p2p0-2p0-3p2p0-2p0--
D-----5-----4-----------------------3---3---3---3-----3---3-----3---3-
A---------------------------------------------------------------------
E---------------------------------------------------------------------

(sounds like random slides, so don't follow too closely)
E---------------------------------------------------------------------|
B---------------------------------------------------------------------|
G-3p2p0---7p0-----0---7p0-----0---7p0-0---0-7p0-9/12-12\p0h10-x-x-x/--|
D------3p0---0-3/5-7/9---0-3/5-7/9-----3/5--------------------x-x-----|
A---------------------------------------------------------------------|
E------------------------------------------------------------------12\|


E-------------------------------------------------------------
B------------------------------------------------------8~~----
G-----0-2-2bh-2r-0-------------------------7-7----------------
D--2-4-------------4----0-2p0---5-5---5-7/9-9-9\7-5-7/9-------
A--------------------2/3-3---5/7-7-5/7------------------------
E---------------------------------------------------------7\--

                                             w/bar   
E-----------------------------------------12!\10!------
B--------------------------------5!-----7!-------------
G------0-2-2bh-2r-0-----0--0---5!--5!-7!---------------
D--2-4--------------4----4b--5!------------------------
A---------------------2b-------------------------------
E-------------------------------------------------10\--

                                                     reverse rake
E------------------------------------------------------x------x-------
B-------------------------------------------------------x------x------
G------0-2-2bh-2r-0-----0---------------------2----------x------x-----
D--2-4--------------4----------0--0---0--------0----------x------x----
A---------------------2b-5pbr-----------2-3-3b--3p20--0----0------0---
E----------------------------2b-2b-2/7--------------3b------3b-----3b-


E--------------------------------------------------|
B--------------------------------------------------|
G--------------------------------------------------|
D----------0---------------------------------------|
A--0-0-2/12--2b-3-5~5~5~5~5~5~5~5~5~5~5~5~5~5~5~5--|
E--------------------------------------------------|


E--3p0-0--------------------------------3p0-0--------------------------
B-----6-3p0-0--------------------------0---6-3p0-0---------------------
G----------5-3p0-0---------5-3b---5-3b----------5-3p0-0--------7-6-5---
D---------------5-3p0-0------------------------------5-3p0-0-----------
A--------------------0--3/7-5--3/7-5----------------------0-7/9---7----
E-------------------------------------------------------------------8\-


E--3p0-0--------------------------------------------------------
B-----6-3p0-0---------------------------------------------------
G----------5-3p0-0---------5-3b---5-3b-5p3-0-0------------------
D---------------5-3p0-0-------------------5-5-3p0-0h3-----------
A--------------------0--3/7-5--3/7-5-----------------5-4-3-1h2--
E---------------------------------------------------------3---3-


E---------------|
B---------------|
G------------0--|
D-------0h2p0---|
A--0h1/2--------|
E---------------|
 Comments (click here to add a non-facebook comment)
Home | FAQs | Privacy | Terms | Advertise | Contact
Top 100 Tab Sites