Give Kudos?
Are you sure you want to give kudos to eric wilson?

Add To Songbook?
Are you sure you want to add this song to your songbook?


2,831 bands | 36,023 songs
Search: Register FREE! | Login
Browse Songs:
Browse Bands:
Tool Panel
Discuss This Song

1 2 3 4 5



Brad Paisley - The World [solo] (Solo)
Album: TIme Well Wasted (2005)
Submitter: eric wilson (1) on 9/20/05 2 comments
Month Views: 18 | Total Views: 15,602
Moderator: Ray Terry | Report This Song?
Song Tools

Comment

Songbook

Kudos

Show Chords

Print

Brad Paisley - The World[solo]
Time Well Wasted

tabbed by: eric wilson

Firstly, a special thanks to Logan for giving this a look over and making sure I didn't 
have any big mistakes. Cheers.

----------------------------------------------------------------------------
bh= bend and hold         rp= release bend and pull-off

pb= pre-bend              r = release

; = sliding back and forth moving up neck. see note below
----------------------------------------------------------------------------
(;)I think Paisley maybe using his G-bender while sliding this up, so I comp it by very aggressivly 

sliding back and forth, 1 fret up and back, on the strings while moving up the fretboard till the 12th 

fret. 


I will do a soundbyte soon to help.

******************************************************************************
  B   C   C#  D

E-7---8---9---10--
B-10b-11b-12b-13b-
G-----------------
D-----------------
A-----------------
E-----------------

  E                                                 B

E---------------------------------------------------11-x-9--x-16-14-----
B---------------------------------------------------12-x-10-x-12----17b-
G-----------------------------------------------------------------------
D-----------------------------------------------------------------------
A-----------------------------------------------------------------------
E-0h11b-12-12-12-12-12---0h11b-12-12-12-12-12---------------------------

  C#m                                         A

E-9-----9-------------------------------------------------------------------
B---12bh--12r-9-------------------------------------------2-----------------
G---------------11h12p11-9---------------------------2-4bh--4rp2p0-----2----
D--------------------------11p10-9------------------2--------------2h4------
A----------------------------------11-10-9\7-----2h4------------------------
E---------------------------------------------4/5---------------------------

  E                   B                             C#m                   A

E---------------------------------------------------7---7----------------------------------------------
B-----------------------------------3/4-4h5/6-6/7-----7b-r-7;-------------------------------------------
G-------------------------4/6-4h6-4-3/4-4h6/7-7/8----------9;14b-14-14r---14-14-14p12-----14p12--14p12-
D-----------0------0--3/4-4/6-4---4------------------------------------14------------14--------14----14
A---------------------1/2------------------------------------------------------------------------------
E-3b-0--0h3b---0h3b------------------------------------------------------------------------------------
 Comments (click here to add a non-facebook comment)
Try Hicktown submitted by Shantel
-zimmiez | 8/20/2005
can anyone tell me the times of the solo? wen do they start and end in the song?
-washburnrw | 1/23/2006
Home | FAQs | Privacy | Terms | Advertise | Contact
Top 100 Tab Sites