Give Kudos?
Are you sure you want to give kudos to WildCard76?

Add To Songbook?
Are you sure you want to add this song to your songbook?


2,616 bands | 34,298 songs
Search: Register FREE! | Login
Browse Songs:
Browse Bands:
Tool Panel
Discuss This Song

1 2 3 4 5





Brad Paisley - We Danced (Chord)
Album: Who Needs Pictures-Part II (2008)
Submitter: WildCard76 (262) on 11/15/02 4 comments
Month Views: 154 | Total Views: 37,895
Moderator: Ray Terry | Report This Song?
Song Tools

Comment

Songbook

Kudos

Show Chords

Print

 
WE DANCED
(Brad Paisley)


E--------------0-------------5----4------2--------
B-----------2----2---0-0h2----------5-------------
G--------2----------------------------4-----------
D-------------------------------------------------
A-----0-------------------------------------------
E-------------------------------------------------


The bar was (Asus2) empty
I was (D/A) sweeping up the floor
(Esus) That's when she (E) walked in
I said, (A) "I'm sorry, but we're closed"
(D/A) She said, (Asus2) "I know
But, I'm (D/A) afraid I left my purse"
I said, "I (Esus) put one back (E) behind the bar
(A) I bet it's probably yours"
And the (Bm7) next thing that I knew
There we (Esus) were, (E) lost in conver(A)sation
Before I (Bm) handed her, her purse
I said, "You'll (G) only get this back on (G/F#) one (E) condition"

We (A) danced
(D) Out there on that empty hardwood (E) floor
The chairs up and the lights turned (D/F#) way down (Bm7) low
The music played - we held each other (Esus) close (E)
And, we (A) danced


E--------------0-------------5----4------2--------
B-----------2----2---0-0h2----------5-------------
G--------2----------------------------4-----------
D-------------------------------------------------
A-----0-------------------------------------------
E-------------------------------------------------

From that (A) moment
There (D/A) was never any doubt
(Esus) I had found the (E) one
That I'd (A) always dreamed about
And, (D/A) then one (A) evening
She (D/A) stopped by, after work
I (Esus) pulled a diamond (E) ring
Out of the (A) pocket of my shirt
As her (Bm) eyes filled up with tears
She (Esus) said, "this is the (E) last thing I expe(A)cted"
Then she (Bm7) took me by the hand
And said, "I'll (G) only marry you on (G/F#) one (E) condition"

We (A) danced
(D) Out there on that empty hardwood (E) floor
The chairs up and the lights turned (D/F#) way down (Bm7) low
The music played - we held each other (Esus) close (E)
And, we (A) danced
Like (D/A) no one else had ever danced be(Esus)fore (E)
I can't explain what happened (D/F#) on that (Bm7) floor
But, the music played - we held each other (Esus) close (E)
And, we (A) danced


E--------------0-------------5----4------2--------
B-----------2----2---0-0h2----------5-------------
G--------2----------------------------4-----------
D-------------------------------------------------
A-----0-------------------------------------------
E-------------------------------------------------

We (A) danced


E--------------0-------------5----4------2---------0----
B-----------2----2---0-0h2----------5------3-------0----
G--------2----------------------------4------2-----2----
D--------------------------------------------------2----
A-----0--------------------------------------------0----
E-------------------------------------------------------




Christopher R.
Knoxville, TN
WildCard76 at msn.com 
 Comments (click here to add a non-facebook comment)
forget about cheeseballs queers like shyla, not bad, keep tabbin' bro
-Albino | 4/28/2004
There are some chords missing here, and that GF# doesn't give the exact sound.
I tried to find it out from the live play but failed.


And said, "I'll (G) only marry you on (G/F#??) one (E??) condition (??) (??)"

I also did not recognize the following chord from his fingers:
She (D???) stopped by, after work


I checked the other parts and they seem real good, Brad just plays on capos to make the alternative Ds.


-rezbahal | 2/20/2005
Except for maybe a few extra Esus in the chorus, everything elese sounds perfect.
-rodman5486 | 11/2/2005
This is the intro and bridge brad plays when he is by himself on acoustic

E---------------------------0--0/0-0--0--0------------
B------------0h2-----------5--5/3-3--3--3------------
G----------2-----------2---4--4/2-2--2--2------------
D-------2----------2/4-----6--6/4-4--4--4------------
A-----0----------0---------0--0/0-0--0--0------------
E-------------------------------------------------------




E-----------------------5----0--0/0-0--0--0---------
B------------0h2-3-3/5------5--5/3-3--3--3---------
G----------2-----------------4--4/2-2--2--2---------
D-------2--------------------6--6/4-4--4--4---------
A-----0----------------------0--0/0-0--0--0---------
E-----------------------------------------------------



-mikewo5o | 1/6/2009
Home | FAQs | Privacy | Terms | Advertise | Contact
Top 100 Tab Sites