Give Kudos?
Are you sure you want to give kudos to axehappy?

Add To Songbook?
Are you sure you want to add this song to your songbook?


2,693 bands | 34,919 songs
Search: Register FREE! | Login
Browse Songs:
Browse Bands:
Tool Panel
Discuss This Song

1 2 3 4 5





Brad Paisley - Who Needs Pictures (Tab)
Album: Who Needs Pictures-Part II (2008)
Submitter: axehappy (60) on 1/25/02 3 comments
Month Views: 16 | Total Views: 11,503
Moderator: Ray Terry | Report This Song?
Song Tools

Comment

Songbook

Kudos

Show Chords

Print

Brad Paisley - Who Needs Pictures (picking pattern)

By axehappy - axehappy at countrytabs.com

Play with capo on 2nd fret.
All picking patterns and chord shapes are relative to 
position of capo.
This is only a guide to the picking patterns used, as they
repeat at points throughout the song.


E     =   xx0232               Dbm     =   x24432

A     =   320003               B       =   x02220

F#sus =   022200               F#      =   022100

Abm   =   244222

***********************************************************************

INTRO

   E       Dbm     A      B        E       Dbm      A      B

E-------------------------------------------------------------------|
B------3-------3--------------2--------3-------3-----------------2--|
G--0h2---0-0h2---0-0h2-0-----2-2---0h2---0-0h2------0h2-0--------2--|
D--0--0-4--0--0-4-----0-4-2-2------0--0-4--0--0-4-0----0-4-2-2p0-2--|
A----------2--------------0----------------2---------------0-----4--|
E------------------3--------------------------------3---------------|



VERSE (repeat pattern x2)

   E          Dbm       A         B

E---------------------------------------------|
B-------3---------3-------0-3-----3--3-0--2---|
G--2--2---2---4-4---4---0-----0-----2----2-2--|
D--0-0-0-0-0---4-4-4-4---0-0-0-0---2----2-----|
A-------------2-------------------0-----------|
E-----------------------3---------------------|


CHORUS

   E             Dbm           A         B            E 

E--2--------0-5--2-------------------------------0-3--2---------0-5--
B-------3--3---------2----2-3--0---3-----3--3-2-3----------3---3-----
G-----2---2--------4-----4-------0---0-----2-------------2----2------
D--0-0-0-0--------4-4---4-------0-0-0-0---2-----------0-0-0-0--------
A----------------2----2------------------0----0----------------------
E------------------------------3-------------------------------------

   Dbm           A     Dbm  F#sus F# Abm A         B   
   
E--2-------------------------0-0------2---------------------|
B------2----2-3--3--3--3--3--0--0-0---2--3---3-----3--3-2---|
G----4-----4-------0-----2---2----1--------0---0-----2------|
D---4-4---4-------0-----4----------2------0-0-0-0---2-------|
A--2----2---------------------0--------------------0----0---|
E----------------3-----2-----0----0---2--3------------------|


 Comments (click here to add a non-facebook comment)
Yet another excellent job axe...u got a hell of a ear
-Countrypickin14 | 1/2/2005
great tab...you really must have an excellent ear to be able to pick out what you do......could you tab out whiskey lullaby
-ballhog27 | 1/5/2005
Nice work

-bluegrass30009 | 1/12/2006
Home | FAQs | Privacy | Terms | Advertise | Contact
Top 100 Tab Sites