Give Kudos?
Are you sure you want to give kudos to axehappy?

Add To Songbook?
Are you sure you want to add this song to your songbook?


2,668 bands | 34,775 songs
Search: Register FREE! | Login
Browse Songs:
Browse Bands:
Tool Panel
Discuss This Song

1 2 3 4 5





Brad Paisley - Wrapped Around (Intro)
Album: Part II (2001)
Submitter: axehappy (82) on 1/20/02 4 comments
Month Views: 51 | Total Views: 14,634
Moderator: Ray Terry | Report This Song?
Song Tools

Comment

Songbook

Kudos

Show Chords

Print

Brad Paisley - Wrapped Around (intro)

By axehappy - axehappy at countrytabs.com


***********************************************************************

\   =   slide down                h   =   hammer-on        
 
br  =   bend & release            /   =   slide up

***********************************************************************


E---------------------------------------------------------------
B---------------------------------------------------------------
G---------------------------------------------------------------
D---------------------------------------------------------------
A------------0-0-----0-0---------------------------0-0-----0-0--
E--12\---4h5-----4h5------2br-0-0-0-2br-0-0-0--4h5-----4h5------


E-------------------------------------------------------------
B-------------------------------------------------------------
G-------------------------------------------------------------
D-------------------------------------------------------------
A---------------------------0-0-----0-0-----------------------
E--2br-0-0-0-2br-0-2-0--4h5-----4h5------2br-0-0-0-2br-0-0-0--


E-------------------------------------------|
B-------------------------------------------|
G-------------------------------------------|
D-------------------------------------------|
A------0-0-----0-0----------------2-2br-0---|
E--4h5-----4h5------2br-0-0-0--2/4----------|
 Comments (click here to add a non-facebook comment)
Sorry guys, deserves a TEN rating. If you're complaining about the
zero's on the A string, then just don't play them. Still, the tab
is note for note anyway.
-geetar81 | 8/3/2002
I saw Brad Paisley in concert and that is exactly how
he plays it, except for the last 3 or 4 notes.
Good tab, I play this almost everyday.
Aggie86
-Aggie86 | 2/21/2003
It's sounds like it, I give it a ten.
-mr1time | 5/15/2004
Hey axe, I am learning so much hearing the tab work you do, you do great work.
Could you do an mp3 of the beginning of wrapped?
thanks, jim
-jimandpam | 8/3/2005
Home | FAQs | Privacy | Terms | Advertise | Contact
Top 100 Tab Sites