Give Kudos?
Are you sure you want to give kudos to axehappy?

Add To Songbook?
Are you sure you want to add this song to your songbook?


2,679 bands | 34,864 songs
Search: Register FREE! | Login
Browse Songs:
Browse Bands:
Tool Panel
Discuss This Song

1 2 3 4 5





Brad Paisley - Wrapped Around (Lead)
Album: Part II (2001)
Submitter: axehappy (115) on 2/1/02 10 comments
Month Views: 33 | Total Views: 13,989
Moderator: Ray Terry | Report This Song?
Song Tools

Comment

Songbook

Kudos

Show Chords

Print

Brad Paisley - Wrapped Around (lead solo)

By axehappy - axehappy at countrytabs.com

The hammer-ons and pulloffs at the end of this solo are VERY fast,
so make sure you are warmed up before you attempt to play!


***********************************************************************

/   =   slide up                               x   =   dead note

p   =   pulloff                                \   =   slide down

h   =   hammer-on

***********************************************************************


                            rake    rake          rake

E------ -------------------------------------------------
B----------------------------5-2----2--------2---3--2----
G---------------------------2------2--2-----2---x----2---
D--5/7-6-6-4-4---7-6-------2------2------2-4---x------4--
A-----0---------7----7-5-4-------------------------------
E--------------------------------------------------------


E---5-4p0-0------------------------------------------------------
B--0-------------------------------------------------------------
G----------4p0-----------------------2h4p2p0-0-------------------
D-------------6\4\2p0-----------2h3h4-------4-4p2p0--------------
A--------------------4---0h2h3h4-------------------3p2p0---------
E---------------------4---------------------------------0h3p2p0--
 Comments (click here to add a non-facebook comment)
You got the run at the end right. But the beginning goes like this.

e-------------------------------------------
B----------------------2/5---2------23------
G-------------------------6~--2~---2--2-----
D--4/7~-66-44-464----------------24----4~---
A-----------------754-----------------------
E-------------------------------------------

Like I said you got the last part right, so I'm not going to put that.
I grouped the numbers together so don't go looking for the 754 fret.
I'll Save you time "It's not there." I got ahold of Brad Paisley's
Preformance at the CMA awards and I ashore you, this is how he plays it.
Keep those fingers flying.
The legend.
-the legend | 7/11/2002
Yeah, he may have played it differently live though....
On the actual album recording though, my tab is 100% accurate to what
he plays.
-axehappy | 7/12/2002
The original version posted by Axe is correct. That is exactly how
Brad plays it on the album.
-cmtboy | 9/3/2002
I just wanted to make a suggestion.
The part where you hit the 7th fret A string At the beginning of the
solo. Just leave that out totally and play the rest the same.
I could be wrong and I probally am but please tell me what you think.
-yinielin | 1/2/2003
The open A string?? Preference really...
That's just the way I interpreted it...no
wrong or right in that case.
-axehappy | 1/2/2003
Could you do a sound byte whenever you have time? It'd help me a lot.
-mystikal1116 | 1/17/2004
Axe is right.

-gjkilmer | 1/26/2004
Great work!
But I want to add a few notes at the END of the solo. This is the way he plays it on the album recording.

E---5-4p0-0------------------------------------------------------------
B--0-------------------------------------------------------------------
G----------4p0-----------------------2h4p2p0h4p2p0-0-------------------
D-------------6\4\2p0-----------2h3h4-------------4-4p2p0--------------
A--------------------4---0h2h3h4-------------------------3p2p0---------
E---------------------4---------------------------------------0h3p2p0--

Rock on!
-Niklas | 12/13/2004
yep, nice tab...

Brad's amp placement or mic placement on this cd was a alot diff... Most the solos on this cd seem to be farther off. Sounds kinda cool.

I seen brad live this month and he improv's next to everything. He's alot better live...way better.

Great tab...giving it a 10
-mooman2679 | 1/21/2005
Hey can somebody please help me out with the CORRECT chords? Great tab though!
-Cowboy+17 | 3/4/2005
Home | FAQs | Privacy | Terms | Advertise | Contact
Top 100 Tab Sites