Give Kudos?
Are you sure you want to give kudos to yinielin?

Add To Songbook?
Are you sure you want to add this song to your songbook?


2,732 bands | 35,202 songs
Search: Register FREE! | Login
Browse Songs:
Browse Bands:
Tool Panel
Discuss This Song

1 2 3 4 5



Brad Paisley - Wrapped Around (Solo)
Album: Part II (2001)
Submitter: yinielin (0) on 1/2/03 4 comments
Month Views: 3 | Total Views: 8,673
Moderator: Ray Terry | Report This Song?
Song Tools

Comment

Songbook

Kudos

Show Chords

Print

 

By: Yinielin 
         	

           |h=hammer on     b=bend|
           |p=pull off            | 
           |/=slide               |       
 




E----------------------------------------------------
B------------------------------5-2-2---------2-3-----
G------------------------------------2-----2-----2---
D---5/7---6-6-4-4---7-6----------------2-4---------4-
A-------0---------0------7-5-4-----------------------
E----------------------------------------------------

E-----5-4-0------------------------------------------
B---0------------------------------------------------
G-----------4-----------------------2h4bp2-----------
D-------------6-4/2-----------2h3h4--------3p2p0-----
A-------------------4-0h2h3h4------------------------
E----------------------------------------------------

                        E
E-----------------------0----------------------------
B-----------------------0----------------------------
G-----------------------1----------------------------
D-----------------------2----------------------------
A---4p3p2p0-------------2----------------------------
E------------4p3p2p0-0--0----------------------------


 Comments (click here to add a non-facebook comment)
There should be a sweep pick before a few notes...instead of this
E----------------------------------------------------
B------------------------------5-2-2---------2-3----
G------------------------------------2-----2-----2---
D---5/7---6-6-4-4---7-6----------------2-4------
A----------------------------------------------------
E----------------------------------------------------
try this...
E----------------------------------------------------

E-----------------------------(sweep-------)-------
B------------------------------5-6-------- 6----
G-----------------------------6-----------7--7
D----------------------------7-----------7------
A-------------------------------------------------------
E----------------------------------------------------
once you get the hang of it, it will sound just like it.
Other than that great job.

-christianjl | 1/10/2004
sorry...minor correction on my last note
E-----------------------------(sweep-------)-------
B------------------------------5----------------------
G-----------------------------6--6--------6---------
D----------------------------7-----------7--7-------
A----------------------------------------7-------------
E---------------------------------------------------
This is right
-christianjl | 1/10/2004
Whats a sweep?
-kv | 5/17/2005
i dont have a broom :)
-CountryJimmy | 7/4/2008
Home | FAQs | Privacy | Terms | Advertise | Contact
Top 100 Tab Sites