Give Kudos?
Are you sure you want to give kudos to axehappy?

Add To Songbook?
Are you sure you want to add this song to your songbook?


2,693 bands | 34,919 songs
Search: Register FREE! | Login
Browse Songs:
Browse Bands:
Tool Panel
Discuss This Song

1 2 3 4 5





Brad Paisley - You Have That Effect On Me (Intro)
Album: Part II (2001)
Submitter: axehappy (60) on 5/6/02 2 comments
Month Views: 81 | Total Views: 8,805
Moderator: Ray Terry | Report This Song?
Song Tools

Comment

Songbook

Kudos

Show Chords

Print

Brad Paisley - You Have That Effect On Me (intro)

By axehappy - axehappy at countrytabs.com


Again, this is jazz...
Most of these runs are arpeggios (broken chords).
These are nice runs which are worth learning.
Also note the octaves at the very beginning.
It's worth memorising these in all positions.


***********************************************************************

\   =   slide down                            h   =   hammer-on

/   =   slide up

***********************************************************************


                  rake      rake
E-------------------7-8-10-----2-3-5-----------------0---9/-21\-------
B----7-8-10---12---8----------3---------5-3-1-------2-4h7--------12\--
G--9--------------7----------2---------3----1------2------------------
D----4-5-7---9-------------------------3--------1-4-------------9-----
A--7----------------------7\---------3---------2----------------------
E-----------0-------------------------4-----2-------------------------


E----------------|
B--2-1-0---------|
G--2----2-0h1----|
D----------------|
A--2------2------|
E------------0---|

 Comments (click here to add a non-facebook comment)
Once again dude...you have done it again!What an intro....Paisley is powerful!
-shadamon | 9/16/2003
what does rake mean
-tonyjay87 | 4/25/2005
Home | FAQs | Privacy | Terms | Advertise | Contact
Top 100 Tab Sites