Give Kudos?
Are you sure you want to give kudos to axehappy?

Add To Songbook?
Are you sure you want to add this song to your songbook?


2,668 bands | 34,775 songs
Search: Register FREE! | Login
Browse Songs:
Browse Bands:
Tool Panel
Discuss This Song

1 2 3 4 5





Brad Paisley - You Have That Effect On Me (Solo)
Album: Part II (2001)
Submitter: axehappy (82) on 8/11/02 7 comments
Month Views: 14 | Total Views: 4,691
Moderator: Ray Terry | Report This Song?
Song Tools

Comment

Songbook

Kudos

Show Chords

Print

Brad Paisley  -  You Have That Effect On Me (solo)

By axehappy  -  axehappy at countrytabs.com


***************************************************************************************

/   =   slide up                                       \   =   slide down

h   =   hammer-on                                      x   =   dead note

br  =   bend & release                                 p   =   pulloff

***************************************************************************************



                                             rake                rake
E---------------------------------------------------------------------------12----
B----------------------------------10-12-7/9-x-----------------------10-----------
G--1-2/4-4/7\---6-9-6h8\4-4/9-----9-----------x-------7-6-7br-p6----9--11/13------
D--------3/6\--7-----------------9-------------x-----9------------11----------14\-
A-------------9--------------9/11---------------x---8------------9----------------
E------------------------------------------------7-9------------------------------



E-----7-5-4------------------------------|
B----------7-5-4-------------------------|
G--2/4----------6-5-4--------------------|
D--------------------7-6-5-4-------------|
A---------------------------7-6-5-4------|
E----------------------------------7-0---|



 Comments (click here to add a non-facebook comment)
you rock man!! one of the best submitters. keep on pickin'

-skateboy | 8/17/2004
You have an amazing ear to be able to pick these licks out as well as you do, but your theory skills are quite poor. I would especially review how you've named a lot of the chords in Make a Mistake. But once again, thanks for submitting such accurate tabs.
-gtrpckr7 | 10/30/2004
Yeah, my theory skills are pretty crap :-)
That's what these comment boxes are for!
If you've got any corrections to chord names
or anything... put them in there!
-axehappy | 10/30/2004
You could have a degree in music theory and still be a terrible musician. I think you're doing great man!
-logansams | 1/10/2005
for someone else who has crap theory like myself and doesn't even know which scale this is, could you let me know which scale??? thanks ax!
-brianhersh | 3/21/2005
I don't know what scale its in.. like I said, my theory skills are non-existant :)
Its mostly arpeggios though, but don't ask me which ones :p
-axehappy | 3/21/2005
You Could jam on the key of E maj on this song with a little bit of E blues Scale.
Improvise it's the key to jamming with other bands
-zunie | 12/12/2005
Home | FAQs | Privacy | Terms | Advertise | Contact
Top 100 Tab Sites