Give Kudos?
Are you sure you want to give kudos to jpatt57?

Add To Songbook?
Are you sure you want to add this song to your songbook?


2,675 bands | 34,826 songs
Search: Register FREE! | Login
Browse Songs:
Browse Bands:
Tool Panel
Discuss This Song

1 2 3 4 5





Brad Paisley - You Shouldn't Have To (Solo)
Album: Moonshine In The Trunck (2014)
Submitter: jpatt57 (0) on 12/28/14
Month Views: 5 | Total Views: 2,315
Moderator: Ray Terry | Report This Song?
Song Tools

Comment

Songbook

Kudos

Show Chords

Print

You Shouldn't Have To
Brad Paisley 






E---------1-----------------------------6-4b5---------------------------------------------------------------------------
B-------1---4--1h4p1---------4b5-----4--------6----3h4p3---------------------------------------------------------------------------
G---3b5--------------3b5----------5-------------5---------5-4-3---3------------------------------------------------------------
D---------------------------------------------------------------3----6-6b7----------------------------------------------
A---------------------------------------------------------------------------------------------------------------
E----------------------------------------------------------------------------------------------------------------

E------------------------------------------------------------------------------------------------------------------
B---15-----15----------------------------------------------------------------------------------------------------------
G---------------------------13-13---------------------------------------------------------10----9----8------8b10\-----------------------------
D-------18-----18-17-15------------------------------10/12---8/10-----------13-10---13b15----13---10----10-------------------------------------------------
A------------------------17--------15-14-13--------------------------13-10----------------------------------------------
E--------------------------------------------15--------------------------------------------------------------------

E-----------------------------------------------------------------15bh17-17rb15-13-13----------------------------------------------
B--------------------------------------------13----15b18---13---------------------------13-16-14b15---------------------------
G-------------------------------------14--------14------------14------------------------------------------------------------
D---------------------15----17p15--17----15-----------------------------------------------------------------------------------
A---11-13-12-15-12/15----15----------------------------------------------------------------------------------------------------
E----------------------------------------------------------------------------------------------------------------

E------------------------------------------------------------------------------------------------------------------
B---13---------13-13----------13-------------------------------------------------------------------------------------------
G-------15/17--------15-15/17------17p13--------------------------------------------------------------------------------------------
D----------------------------------------17p13----13-17-15-13-------------------------------------------------------------------
A----------------------------------------------15-------------15-14-13--------------------------------------------------
E-----------------------------------------------------------------------15br-13----------------------------------------

 Comments (click here to add a non-facebook comment)
Home | FAQs | Privacy | Terms | Advertise | Contact
Top 100 Tab Sites