Give Kudos?
Are you sure you want to give kudos to Koichi Kondo?

Add To Songbook?
Are you sure you want to add this song to your songbook?


2,693 bands | 34,920 songs
Search: Register FREE! | Login
Browse Songs:
Browse Bands:
Tool Panel
Discuss This Song

1 2 3 4 5





Brantley Gilbert - Kick It In A Sticks (Bass)
Album: Halfway to Heaven (2010)
Submitter: Koichi Kondo (544) on 3/12/12
Month Views: 15 | Total Views: 4,901
Moderator: dumbbballstar | Report This Song?
Song Tools

Comment

Songbook

Kudos

Show Chords

Print

Kick It In A Sticks
Written by Brantley Gilbert, Mike Mobley & Jeremy Spillman
Recorded by Brantley Gilbert

Intro.

G |------------------------------|------------------------------|
D |------------------------------|------------------------------|
A |-----------2------------------|------------------------------|
E |-4-4-4-----------2-2-2---0---0|---0-0-----0---0---2-2--------|

G |------------------------------|------------------------------|
D |------------------------------|------------------------------|
A |-----------2------------------|------------------------------|
E |-4-4-4-----------2-2-2---0---0|---0-0-----0---0---2-2--------|
 Comments (click here to add a non-facebook comment)
Home | FAQs | Privacy | Terms | Advertise | Contact
Top 100 Tab Sites