Give Kudos?
Are you sure you want to give kudos to Koichi Kondo?

Add To Songbook?
Are you sure you want to add this song to your songbook?


2,668 bands | 34,782 songs
Search: Register FREE! | Login
Browse Songs:
Browse Bands:
Tool Panel
Discuss This Song

1 2 3 4 5





Brantley Gilbert - Small Town Throwdown (Chord)
Submitter: Koichi Kondo (686) on 7/17/14 2 comments
Month Views: 101 | Total Views: 30,655
Moderator: dumbbballstar | Report This Song?
Song Tools

Comment

Songbook

Kudos

Show Chords

Print

Small Town Throwdown
Written by Brantley Gilbert, Ben Hayslip, Rhett Akins & Dallas Davidson
Recorded by Brantley Gilbert (feat. Justin Moore & Thomas Rhett)
Album: Just As I Am (2014)

(Drop D, No Capo)

Intro.:  (D) x 8 bars
                                                   Oh son
E |------------|-------------|------------|-------------|
B |------------|-------------|------------|-------------|
G |------------|-------------|------------|-------------|
D |------------|-------------|------------|-------------|
A |0-2-3-2-3-2b|bbbbbbbbbb/0-|0-2-3-2-3-3b|bbbbb5-------|
D |------------|-------------|------------|-------------|

D |----------------|----------------|---------------|--------------------|
A |0-2-3-3-2-3-2-3-|0-2-3-3-2-3--4/5|0-2-3-3-2-3-2-3|0-2-3-3-2-0-2-0-----|
D |----------------|----------------|---------------|---------------2/3-0|

(Verse)
A-(D)round these parts ain't much to do, except work like a dog 'til Friday
Punch that clock, cash that check, raise a little hell 'til Sunday

Solo
              'Bout that time 
A |0-2-3-3-2-3-2-3|0-2-3-3-2-0-2-0-----|
D |---------------|---------------2/3-0|

(Verse)
There's a (D)party back in the woods tonight, heard it through the redneck grapevine
Got a keg of beer and a bunch of girls, sure enough gonna be a good time

(Chorus)
It's a (D)small town (F)throwdown
It's time to (Gsus4)tallboy up, let them (Bb)tailgates (C)down
And man, it's (D)on tonight, ridin' 'til the (F)morning light
Crank that (Gsus4)country up loud, it's a (Bb)small town (C)throwdown

Solo
                                               Oh, we 'bout to throwdown, son
A |0-2-3-3-2-3-2-3-|0-2-3-3-2-3--4/5|0-2-3-3-2-3-2-3|0-2-3-3-2-0-2-0-----|
D |----------------|----------------|---------------|---------------2/3-0|

(Verse)
Now (D)we got a field full of daisy dukes, round here we know how to grow 'em (G)
(D)Rockin' little body and long tan legs, sure ain't scared to show 'em, no

Solo
             Show a little somethin', girl
A |0-2-3-3-2-3-2-3|0-2-3-3-2-0-2-0-----|
D |---------------|---------------2/3-0|

(Verse)
Some-(D)body said them city boys ridin' around lookin' for some trouble (G)
If they (D)bring it 'cross that county line, you know there's gonna be a rumble

(Chorus)
It's a (D)small town (F)throwdown
It's time to (Gsus4)tallboy up, let them (Bb)tailgates (C)down
And man, it's (D)on tonight, ridin' 'til the (F)morning light
Crank that (Gsus4)country up loud, it's a (Bb)small town (C)throwdown now

Solo:  |(G) |(F) |(D)(C)(D) / C'mon |(D)(F)(D) / |(G) |(F) |(Eb) |(D)

(Chorus)
It's a (D)small town (F)throwdown
It's time to (Gsus4)tallboy up, --- let them tailgates down
And man, it's (D)on tonight, ridin' 'til the (F)morning light
Crank that (Gsus4)country up loud, it's a (Bb)small town (C)throwdown

(Chorus)
It's a (D)small town (F)throwdown
It's time to (Gsus4)tallboy up, let them (Bb)tailgates (C)down
And man, it's (D)on tonight, ridin' 'til the (F)morning light
Crank that (Gsus4)country up loud, it's a (Bb)small town (C)throwdown now

Outro.  |(D) It's a |(D)small town throwdown, |(D) |(D) --- |(D) that's country -----
 
 Comments (click here to add a non-facebook comment)
This tab is Really good! it sounds just like it as long as you tune to Drop D, thats a must! Overall great tab man. Thanks a lot!
-Anphir | 8/19/2014
Please post this to Ultimate. The tabs there are completely wrong!!! Thanks
-wildbill490 | 9/28/2014
Home | FAQs | Privacy | Terms | Advertise | Contact
Top 100 Tab Sites