Give Kudos?
Are you sure you want to give kudos to texasisalive?

Add To Songbook?
Are you sure you want to add this song to your songbook?


2,719 bands | 35,141 songs
Search: Register FREE! | Login
Browse Songs:
Browse Bands:
Tool Panel
Discuss This Song

1 2 3 4 5



Brooks & Dunn - Aint Nothing About You (Bass)
Album: Steers & Stripes (2001)
Submitter: texasisalive (4) on 8/11/03
Month Views: 7 | Total Views: 8,039
Moderator: Ray Terry | Report This Song?
Song Tools

Comment

Songbook

Kudos

Show Chords

Print

Brooks & Dunn
Aint Nothing About You



G -----------
D -----------
A 0----3----2 repeate 2x
E --1--------

Verse
G -----------------------------------------------------------------------------
D -----------------------------------------------------------------------------
A 0-00-0\------------3-3-2-2----0-00-0\------------3-3-2-2---------------------
E -------0-00--1--11-------------------0-00--1--11-----------1--11--3-33--1--11

G ------
D ------
A ------
E 0-0000

Chorus
G -----------    -------
D ----------- 4x -------
A 0------3--2    -------  back to intro
E ---1-------    1-1-1-1 

Bridge
G ------------------------
D ------------------------
A 1-11----3----1----------
E -----1-1-------1-1--0-0-
 Comments (click here to add a non-facebook comment)
Home | FAQs | Privacy | Terms | Advertise | Contact
Top 100 Tab Sites