Give Kudos?
Are you sure you want to give kudos to heels_fan_1?

Add To Songbook?
Are you sure you want to add this song to your songbook?


2,995 bands | 36,867 songs
Search: Register FREE! | Login
Browse Songs:
Browse Bands:
Tool Panel
Discuss This Song

1 2 3 4 5



Brooks & Dunn - My Heart Is Lost To You (correction) (Intro)
Album: Steers & Stripes (2001)
Submitter: heels_fan_1 (1) on 6/5/02 2 comments
Month Views: 106 | Total Views: 7,012
Moderator: Ray Terry | Report This Song?
Song Tools

Comment

Songbook

Kudos

Show Chords

Print

My Heart is Lost ot You (Intro) 

I don't know, I just could'nt get the other tab to sound
right when I played.  There are some spots I'm not sure
about and I marked them with a "?" above that part.  And 
there may be some hammer-ons and slides in there somewhere 
also.

Capo 1st

Intro

E----------------------------------------------------------|
B----------------------------------------------------------|
G----------------------------------------------------------|
D-----0-2-0-----0-------2-0-------0-------0-2-0-----0------|
A-0-3-------3-2---3-0-------3-3-0-----0-3-------3-2---3-0--|
E----------------------------------------------------------|
    ?           ?        ?
E----------------------------------------------------------|
B---------------------------------------------0-1----------|
G-----------------------------------------0-2--------------|
D----------------------0-0----------0-2-3------------------|
A-0-----3-2-0----0-2-3--------0-2-3------------------------|
E---4-0--------4-------------------------------------------|
 Comments (click here to add a non-facebook comment)
Check correction submitted by jhowell on the other one. That is the one to go with as it is perfect.

-gjkilmer | 6/1/2003
try this

E ----------------
A ----------------
G ----------------
D -0-----3/4-2-0--
E ---1-1----------

it sounds right for where you don't know
-ledclapton | 6/6/2003
Home | FAQs | Privacy | Terms | Advertise | Contact
Top 100 Tab Sites