Give Kudos?
Are you sure you want to give kudos to the legend?

Add To Songbook?
Are you sure you want to add this song to your songbook?


2,830 bands | 35,974 songs
Search: Register FREE! | Login
Browse Songs:
Browse Bands:
Tool Panel
Discuss This Song

1 2 3 4 5



Brooks & Dunn - My Heart Is Lost To You (in Bm) (Intro)
Album: Steers & Stripes (2001)
Submitter: the legend (1) on 7/15/02 1 comment
Month Views: 11 | Total Views: 3,966
Moderator: Ray Terry | Report This Song?
Song Tools

Comment

Songbook

Kudos

Show Chords

Print

I preferr to play this in Bm.
     Bm       F#       G      D         F#7
e------------------------------------------------------
B------------------------------------------------------
G------------------------------------------------------
D------2-4--2---------------2/4--2-0-0-----------------
A--2-5--------5-4--5-4-2---------------2/7-------------
E------------------------------------------------------


     Bm       F#       G   F#
e---------------------------------------------------------
B---------------------------------------------------------
G---------------------------------------------------------
D------2-4--2---------------------------------------2-----
A--2-5--------5-4--5-4-2---2-1---1/5---5/4-2--2-4-5---4---
E------------------------------2--------------------------


e-----------------------
B---------------3-------
G-----------2h4---------
D-----2h4h5-------------
A-4h5-------------------
E-----------------------

The Verse is D,A,D,F#,G,D,F#,Bm

The Chorus is Bm,F#,G,D,F#
              Bm,F#,G,F#,Bm,F#,Bm

This tab was brought to you By the ear of Chad "The Legend" Wall.
Peace Out
 Comments (click here to add a non-facebook comment)
The pitch of the version I have on my iPod is right between tunings, and I also prefer to play it in Bm rather than capo. Good call, dude!
-dutchair | 1/25/2006
Home | FAQs | Privacy | Terms | Advertise | Contact
Top 100 Tab Sites