Give Kudos?
Are you sure you want to give kudos to axehappy?

Add To Songbook?
Are you sure you want to add this song to your songbook?


2,668 bands | 34,783 songs
Search: Register FREE! | Login
Browse Songs:
Browse Bands:
Tool Panel
Discuss This Song

1 2 3 4 5





Brooks & Dunn - My Maria (Lead)
Album: Borderline (1996)
Submitter: axehappy (106) on 2/21/02 2 comments
Month Views: 18 | Total Views: 16,429
Moderator: Ray Terry | Report This Song?
Song Tools

Comment

Songbook

Kudos

Show Chords

Print

Brooks & Dunn - My Maria (lead)

By axehappy - axehappy at countrytabs.com

You'll need to tune your guitar down to EbAbDbGbBbEb for this one.

***********************************************************************

/   =   slide up                               b   =   bend

bh  =   bend & hold                            r   =   release

\   =   slide down                             h   =   hammer-on

p   =   pulloff                                br  =   bend & release

***********************************************************************



EXAMPLE OF INTRO & VERSE PICKING (acoustic)


Eb-------------------------------------------------------------------|
Bb------------4--2-2-2-----------4-2-2-2------------4-2-2-2----------|
Gb------------4--2-2-2-----------4-2-2-2----------1-4-2-2-2----------|
Db-------2----4--2-2-2----2--2---4-2-2-2----2--2--2-4-2-2-2---2--2---|
Ab------------2--0-0-0-----------2-0-0-0----------2-2-0-0-0----------|
Eb--0-2/4-0------------2/4-3b-0----------2/4-3b-0-0--------2/4-3b-0--|




LEAD SOLO (to end of song)


Eb-------------------12--12-----------------------------------------
Bb-------10/12--10/12--10--7/9--------------------------------------
Gb----------------------------9-11-9-11bh-11r-9--9------------------
Db--9-9-9--------------------------------------11-11-9--------------
Ab----------------------------------------------------11\9-7-7-7-7--
Eb----------------------------------------------------------9-9-9---


Eb----------------------------------------------12----------------
Bb----------------------------------------12-12-12----------------
Gb--------------------9-11p9--9--11/12/13-13-13----12p11p9-11--9--
Db--------------9-9h11------11-------------------------------11---
Ab--9/11-9--9/11--------------------------------------------------
Eb----------------------------------------------------------------

    Chorus singing starts here

Eb--17--17bh--17-17-17r-17-17-15/16-----17p16------------------------
Bb---------------------------------17-17-----17----------------------
Gb----16---------------------------------------16\14--------16h18-16-
Db--------------------------------------------------14-16h18---------
Ab-------------------------------------------------------------------
Eb-------------------------------------------------------------------


Eb----------------------------12----12-------------12----12-----------
Bb----------------------------12h14-12-------------12h14-12-----------
Gb----16------------------------------13\11-9-9h11---------13\11-9-9--
Db--18--18\16-14-16-14------------------------------------------------
Ab---------------------16-14------------------------------------------
Eb--------------------------------------------------------------------


Eb--12----12----------------12----12---------------------------------
Bb--12h14-12-------------12-12h14-12---------------------------------
Gb----------13\11-9-11/13-----------13\11-9--9-----------------------
Db-----------------------------------------11------------9--9h11-9\--
Ab--------------------------------------------11\9-7-9/11------------
Eb-------------------------------------------------------------------


Eb----------------------16--17--17bh--17-17-17r-17-17-15/16----
Bb--7/9---------------17-----------------------------------17--
Gb-----11p9-11b-9-9/16----16--16-------------------------------
Db-------------------------------------------------------------
Ab-------------------------------------------------------------
Eb-------------------------------------------------------------


Eb--16/17-16---17p16-------------------------------------------
Bb------------------17-----------------------------------------
Gb--------------------16\14--16/18-16-16h18-16--------------16-
Db-------------------------14-----------------18\16-14-16/18---
Ab-------------------------------------------------------------
Eb-------------------------------------------------------------

                                                       
Eb------------------------------------------19br-19-17---19---19-
Bb----------------------------------------------------19b--19b---
Gb--16h18-16--------------------16-16h18-16----------------------
Db----------18\16-14-16-14-16/18---------------------------------
Ab---------------------------------------------------------------
Eb---------------------------------------------------------------

    song starts to fade out  

Eb-----19---19---19---19---19---19---19---19---19----19-----------
Bb--19b--19b--19b--19b--19b--19b--19b--19b--19b--19bh--19r-17h19--
Gb----------------------------------------------------------------
Db----------------------------------------------------------------
Ab----------------------------------------------------------------
Eb----------------------------------------------------------------

                                                      song ends
Eb------19-----------------------------------------------------|
Bb--19bh--19r-17--19br-17--------------------------------------|
Gb-----------------------18-16--------------------16-----------|
Db----------------------------18\16-14-16-14-16/18--18\16-14---|
Ab-------------------------------------------------------------|
Eb-------------------------------------------------------------|
 Comments (click here to add a non-facebook comment)
The intro is excellent...Good job buddy

-eddojullio | 7/17/2004
great tab! awsome job! the intro is perfect!
-Mcpro | 7/29/2005
Home | FAQs | Privacy | Terms | Advertise | Contact
Top 100 Tab Sites