Give Kudos?
Are you sure you want to give kudos to WildCard76?

Add To Songbook?
Are you sure you want to add this song to your songbook?


2,626 bands | 34,393 songs
Search: Register FREE! | Login
Browse Songs:
Browse Bands:
Tool Panel
Discuss This Song

1 2 3 4 5





Brooks & Dunn - Only In America (Intro)
Album: Steers & Stripes (2001)
Submitter: WildCard76 (152) on 12/7/02
Month Views: 17 | Total Views: 4,647
Moderator: Ray Terry | Report This Song?
Song Tools

Comment

Songbook

Kudos

Show Chords

Print

INTRO
 
E------------------------------------------------------------------------
B------------------------------------------------------------------------
G-----------------------------------------------4------------------------
D-----------------------7-----7--7--7--7--6-----4------------------------
A--9-11-11-11--9--7-----0-----0--0--0--0--0-----2------------------------
E--0--0--0--0--0---------------------------------------------------------

 
E------------------------------------------------------------------------
B------------------------------------------------------------------------
G-----------------------------------------------------4------------------
D-----------------------------7-----7--7--7--7--6-----4------------------
A----11----11-11-11--9--7-----0-----0--0--0--0--0-----2------------------
E-----0-----0--0--0--0--0------------------------------------------------

                          
E------------------------------------------------------------------------
B----------------------------4--5--4--5--4-------------------------------
G----------------------------4--4--4--4--4-------------------------------
D----------------------------4--6--4--6--4--------2----------------------
A-------------------------------------------------2----------------------
E-------------------------------------------------0----------------------
 Comments (click here to add a non-facebook comment)
Home | FAQs | Privacy | Terms | Advertise | Contact
Top 100 Tab Sites