Give Kudos?
Are you sure you want to give kudos to axehappy?

Add To Songbook?
Are you sure you want to add this song to your songbook?


2,668 bands | 34,783 songs
Search: Register FREE! | Login
Browse Songs:
Browse Bands:
Tool Panel
Discuss This Song

1 2 3 4 5





Brooks & Dunn - Rock My World (Lead)
Album: Hard Workin' Man (1993)
Submitter: axehappy (106) on 5/22/02
Month Views: 25 | Total Views: 10,484
Moderator: Ray Terry | Report This Song?
Song Tools

Comment

Songbook

Kudos

Show Chords

Print

Brooks & Dunn - Rock My World (lead)

By axehappy - axehappy at countrytabs.com


During this tab, if notes are played along with an open string,
let the open string ring out for as long as possible.


***********************************************************************

/   =   slide up                               \   =   slide down

p   =   pulloff                                b   =   bend

h   =   hammer-on                              x   =   dead note

***********************************************************************



INTRO

   E

E--5/7\5p3-0---0---------------------------------|
B----------3/5-3/5\3p0-0---0---------------------|
G----------------------2/4-2/4\2p0---------------|
D---------------------------------2--------------|
A----------------------------------1h2p1p0-------|
E-----------------------------------------3b-0---|



MAIN RIFF (Occurs throughout song and a few times after intro)

   E                    A        E     

E----0---0-0-0--0---0-0--------------|
B----2/3-3-3-3--2/3-3-3-2------------|
G----3/4-4-4-4--3/4-4-4-2------------|
D-------------------------5b-2--2----|
A------------------------------------|
E--0--------------------------3b-0---|




RIFF BEFORE FIRST CHORUS

   E

                 rake
E--0---0---0---5--x--------------------|
B--3h5-3h5-3h5-5b--x---7---------------|
G-------------------x--7---------------|
D--------------------7--7p6p5----------|
A----------------------------7-5-------|
E-------------------------------8b-5---|



RIFF BEFORE SECOND CHORUS

   E                         A

E--3b-0--0----0-3b-0-------------|
B--2b--0-3/5--0-2b-0-------------|
G--------------------2p1p0-0-2---|
D-------------------------2------|
A--------------------------------|
E--------------------------------|


 Comments (click here to add a non-facebook comment)
Home | FAQs | Privacy | Terms | Advertise | Contact
Top 100 Tab Sites