Give Kudos?
Are you sure you want to give kudos to geetar81?

Add To Songbook?
Are you sure you want to add this song to your songbook?


2,831 bands | 36,009 songs
Search: Register FREE! | Login
Browse Songs:
Browse Bands:
Tool Panel
Discuss This Song

1 2 3 4 5



Brooks & Dunn - Rough Boy (Intro)
Album: Sharp Dressed Men (2002)
Submitter: geetar81 (3) on 8/18/02
Month Views: 5 | Total Views: 3,004
Moderator: Ray Terry | Report This Song?
Song Tools

Comment

Songbook

Kudos

Show Chords

Print

E---12r---
B---------
G---------
D---------
A---------
E---------

E------------------------------------------------
B-----5-----------5----------5-----------5-------
G-4^6---4-----4^6---4----4^6---4-----4^6----4----
D----------7----------------------7--------------
A------------------------------------------------
E------------------------------------------------

E------------------------------------------------
B------5----------5------------5----------5------
G--4^6---4----4^6---4----4-4^6---4----4^6---4----
D-----------7----------7------------7------------
A------------------------------------------------
E------------------------------------------------

E------------------------------------------|
B------------------------------------------|
G-6^7-6-4-----4-6^7-6-4--------7/9---------|
D-----------7------------7-7^9-------------|
A------------------------------------------|
E------------------------------------------|
              Another   E----------------|
              guitar    B-10-9-10-9------|
            plays this  G--9-9--9-9------|
           at same time:D----------------|
                        A----------------|
                        E----------------|
                  
 Comments (click here to add a non-facebook comment)
Home | FAQs | Privacy | Terms | Advertise | Contact
Top 100 Tab Sites