Give Kudos?
Are you sure you want to give kudos to axehappy?

Add To Songbook?
Are you sure you want to add this song to your songbook?


2,668 bands | 34,775 songs
Search: Register FREE! | Login
Browse Songs:
Browse Bands:
Tool Panel
Discuss This Song

1 2 3 4 5





Brooks & Dunn - See Jane Dance (Lead)
Album: Steers & Stripes (2001)
Submitter: axehappy (82) on 2/24/02
Month Views: 17 | Total Views: 3,370
Moderator: Ray Terry | Report This Song?
Song Tools

Comment

Songbook

Kudos

Show Chords

Print

Brooks & Dunn - See Jane Dance (lead solos)

By axehappy - axehappy at countrytabs.com


Guitar 1  =  overdriven guitar

Guitar 2  =  overdriven guitar using wah pedal


This song is full of pinched harmonics, so you'd have to have a 
listen to the record to hear where they all are.

***********************************************************************

br   =   bend & release                      p   =   pulloff

b    =   bend                                ~   =   vibrato

tr   =   trill                               h   =   hammer-on

\    =   slide down                          /   =   slide up

pbr  =   pre-bend & release                  bh  =   bend & hold

r    =   release bend                        !   =   natural harmonic

***********************************************************************


SOLO BEFORE 3rd VERSE


Guitar 1
 
E----------------------------------------------------------|
B--5br-----3-----------------------------------------------|
G--5br-p3-5-3b----3-3b--------3b----------------3b-2~~~~---|
D-------------5-3-----5~~~5p3---5p3------------------------|
A----------------5-----------5-----5-3---------------------|
E-------------------------------------6b-3-3-0-1-----------|


SOLOS AFTER 3rd VERSE


Guitar 2             Guitar 1

E--------------------7br-p5-------------------------------------------
B--5tr8-5h8----------8br-p5-7br-p5-7-----5b---------------------------
G----------9\7-5b-----------7br-p5-7-5b--5b---------------------------
D----------------7---------------------7---7-5------------------------
A---------------------------------------7-----7--6-5-3b-0----0-3b-0-0-
E--------------------------------------------------------0-3b---------

                           Guitar 2

E--------------------------8b-8b-8b-8b-8b-8b------------------------
B--------------------------7b-7b-7b-7b-7b-7b-5----------------------
G----------------------0----------------------7/9-7-5-7-7-5---------
D--3b-0-3-3b-0-3b-0-3b-------------------------------------7-5-5-7--
A-------------------------------------------------------------7-----
E-------------------------------------------------------------------

               Guitar 1                              Guitar 2
 
E--8-10-8--------------------------------------------17-------------
B--------10\---7pbr-p5---------------------------------20-----------
G--------------7pbr-p5-7-5b-------7-6-5b---------2-------19bh-19-19-
D--------------------------7------------7-5b-----2------------------
A----------------------------7-6-5----------0-3b-0------------------
E-------------------------------------------------------------------



E-----------------------|
B-----------------------|
G--19-19r-17b-----------|
D------------19-19~~~\--|
A-----------------------|
E-----------------------|



SOLOS AFTER 4th VERSE (to end of song)


   Guitar 1

E---------------------------------------------------------------
B--7br-p5-7-5-----5------------6/8-8-8-10-10--12-12-10-8-8-7-7--
G--7br-p5-7-5b----5b-----------7/9-9-9-11-11--12-12-11-9-9-7-7--
D-------------7p5---7p5-5---------------------------------------
A----------------7-----7-7-5------------------------------------
E---------------------------8-----------------------------------


E---------------------------------------------------------------------
B---------------------------7p5-7br-p5-7br-p5-7b-p5-7--5-7b-7-5-------
G-------7-7-6-5--------7-5--7p5-7br-p5-7br-p5-7b-p5-7--5-7b-7-5b------
D--------------7-5----------------------------------------------7~~~--
A--7-8-9--------7-7-7-5-----------------------------------------------
E---------------------------------------------------------------------



E------------12-14/15/17-----5-5-5-------5---------5-----------
B-------12-15----------------5-5-5-5-----5-5-------5-5---------
G--12-14------------------7bh------7r-p5---7pbr-p5---7pbr-p5---
D---------------------------------------7---------7---------7--
A--------------------------------------------------------------
E--------------------------------------------------------------


                                        Guitar 2

E--5------------------------------------14b-14b-14b-14b-14b---------
B--5-5--------5-7br-p5-7-5--------------13b-13b-13b-13b-13b-10--10--
G----7pbr-p5--5-7br-p5-7-5b-----------------------------------11----
D-----------7--------------7p5-5------------------------------------
A-----------------------------7-5-----------------------------------
E--------------------------------8b-5-------------------------------



E--14b-12--12---------------------------------8-----8----------
B--------15--15-13---------------------------------------------
G-----------------14-12--12-14--14-12-12--9/11-----------------
D----------------------14-----14---------------10-10-10-10/x\--
A----------------------------------------------------------x\--
E--------------------------------------------------------------



E--20b-17-15-------------20b-17-17p15p12--17p15p12--17p15p12---
B-----------17-15-----------------------15--------15--------15-
G----------------17-14\----------------------------------------
D--------------------------------------------------------------
A--------------------------------------------------------------
E--------------------------------------------------------------



E--17p15p12--17p15p12---21br-17p15-------------------15---15---15-
B----------15--------15-----------17p15---------------------------
G--------------------------------------17p16p14\--16b--16b--16b---
D-----------------------------------------------------------------
A-----------------------------------------------------------------
E-----------------------------------------------------------------

                                  Guitar 1
                  
E-----15---15---15------------------5------5-------5-------5-----
B-----------------------------------5-8p5--5-8p5---5-8p5---5-8p5-
G--16b--16b--16b--16b-14--14-14---7b-----7b------7b------7b------
D-----------------------16---------------------------------------
A----------------------------------------------------------------
E----------------------------------------------------------------



E----5--------5--------------------------------------------------
B----5---5h7--5-8p5-5-------7-5----------------------------------
G--7b-7p5---7b-----7--7p5---7-5b---------------------7-5----7\5--
D------------------------7p5-----7p5-5-7p5-5---------7-5----7\5--
A-----------------------------------7-----7-7-5---7/9-9--7/9-----
E----------------------------------------------8-5---------------



E---------------------------------------------------------------------
B--7--------7b-7b-7b-7b-7b-7b--7b-7b-7b-7b--7b--7b--7b--7b--7br-7p5-7-
G--7b-5-7-5-7b-7b-7b-7b-7b-7b--7b-7b-7b-7b--7b--7b--7b--7b--7br-7p5-7-
D-----5-7-5-----------------------------------------------------------
A---------------------------------------------------------------------
E---------------------------------------------------------------------



E--------------------------------5------5------5------5--------
B-----------------7!----7!-------5------5------5------5--------
G--5b--------5b-----7!----7!---7b-8p7p5--8p7p5--8p7p5--8p7p5---
D----7p5-5b-7---4-----7!----7!---------7------7------7------7--
A-------7------------------------------------------------------
E--------------------------------------------------------------



E--------------------------------------------------------------------
B------------------------------------------------------------8--8--8-
G--2--------2--------2--------2--------2------------2-2-2--7b-7b-7b--
D---4p2p0----4p2p0----4p2p0----4p2p0----4p2p0------------------------
A--------3p0------3p0------3p0------3p0------3b-0-3b-0---------------
E--------------------------------------------------------------------



E----
 Comments (click here to add a non-facebook comment)
Home | FAQs | Privacy | Terms | Advertise | Contact
Top 100 Tab Sites