Give Kudos?
Are you sure you want to give kudos to WildCard76?

Add To Songbook?
Are you sure you want to add this song to your songbook?


2,626 bands | 34,394 songs
Search: Register FREE! | Login
Browse Songs:
Browse Bands:
Tool Panel
Discuss This Song

1 2 3 4 5





Brooks & Dunn - She Used To Be Mine (Tab)
Album: Hard Workin' Man (1993)
Submitter: WildCard76 (169) on 11/25/02
Month Views: 37 | Total Views: 12,202
Moderator: Ray Terry | Report This Song?
Song Tools

Comment

Songbook

Kudos

Show Chords

Print

SHE USED TO BE MINE
Brooks And Dunn
Writer: Dunn
From The CD: HARD WORKIN' MAN
Arista Records
Key of C


Intro (play twice)
E--------------------3--------------------------------
B------------3-----3------------3-----3---------------
G----------0-----0------------0-----0-----------------
D--------2------------------4-----4-------------------
A------3----------------------------------------------
E------------------------3----------------------------


She looked so (Csus9) good movin' cross the dancefloor
(G) Better than the day she left me
Arm in (Csus9) arm with somebody new
Holdin' hands and (G) laughing like we used to
I got my (Bm) best smile on, but it's (Csus9) no disguise
(Bm) It don't hide the (D) pain in these eyes

I did her (Gsus4) so (G) wrong for (Bm) so long
Turned my (C) back on her love
Now, she's (Dsus4) long (D) gone
I (G) did my part to (Bm) break her heart
She walked (C) out on me and tore my (G) world apart
She used to (Am) be mine
(C) Oh, she used to be (G) mine


E-----------3-------------------3------------------------------
B---------3----------3--------3------------3-------------------
G-------0----------0--------0------------0---------------------
D----------------2---------------------4-----------------------
A--------------3---------3-------------------------------------
E----3-----------------------------3---------------------------


It's taken (Csus9) every bit of strength that I have
To keep a (G) hurt look off my face
I can't keep from (Csus9) lookin' back over my shoulder
At the (G) lucky man, takin' my place
Oh, if it (Bm) weren't for my pride, I'd probably (Csus9) take off runnin'
(Bm) Guess what I'm feelin' is (D) what I got comin'

I did her (Gsus4) so (G) wrong for (Bm) so long
Turned my (C) back on her love
Now, she's (Dsus4) long (D) gone
I (G) did my part to (Bm) break her heart
She walked (C) out on me and tore my (G) world apart
She used to (Am) be mine
(C) Oh, she used to be (G) mine

SOLO

I did her (Gsus4) so (G) wrong for (Bm) so long
Turned my (C) back on her love
Now, she's (Dsus4) long (D) gone
I (G) did my part to (Bm) break her heart
She walked (C) out on me and tore my (G) world apart
She used to (Am) be mine
(C) Oh, she used to be (G) mine
She used to (Am) be mine
(C) Oh, she used to be (G) mine





Christopher R.
Knoxville, TN

(this was as good as I could do.......the solo is a little too difficult for me.........)
 Comments (click here to add a non-facebook comment)
Home | FAQs | Privacy | Terms | Advertise | Contact
Top 100 Tab Sites