Give Kudos?
Are you sure you want to give kudos to WildCard76?

Add To Songbook?
Are you sure you want to add this song to your songbook?


2,616 bands | 34,299 songs
Search: Register FREE! | Login
Browse Songs:
Browse Bands:
Tool Panel
Discuss This Song

1 2 3 4 5





Brooks & Dunn - She's Not The Cheatin' Kind (Solo)
Album: Waitin' On Sundown (1994)
Submitter: WildCard76 (277) on 1/23/03
Month Views: 34 | Total Views: 4,057
Moderator: Ray Terry | Report This Song?
Song Tools

Comment

Songbook

Kudos

Show Chords

Print

SHE'S NOT THE CHEATIN' KIND
Brooks & Dunn

Solo

E-------------------------------------------------------------------
B-----------------------------------------b12-10---------10--10--12-
G---------------------------7--------9-------------11p9-------------
D------7----7----9----11---------/11--------------------------------
A-------------------------------------------------------------------
E-------------------------------------------------------------------

E--9--10---/9------------------------b12--12-10-9-------------------
B-------------12--b12--12-10----10----------------12----------------
-----------------------------11---------------------b11-9-------9---
D---------------------------------------------------------11--9-----
A-------------------------------------------------------------------
E-------------------------------------------------------------------
 Comments (click here to add a non-facebook comment)
Home | FAQs | Privacy | Terms | Advertise | Contact
Top 100 Tab Sites