Give Kudos?
Are you sure you want to give kudos to WildCard76?

Add To Songbook?
Are you sure you want to add this song to your songbook?


2,626 bands | 34,394 songs
Search: Register FREE! | Login
Browse Songs:
Browse Bands:
Tool Panel
Discuss This Song

1 2 3 4 5





Brooks & Dunn - That's What It's All About (Intro)
Album: The Greatest Hits Collection II (2004)
Submitter: WildCard76 (172) on 9/28/04 2 comments
Month Views: 12 | Total Views: 3,827
Moderator: Ray Terry | Report This Song?
Song Tools

Comment

Songbook

Kudos

Show Chords

Print

THAT'S WHAT IT'S ALL ABOUT
Brooks & Dunn


Intro: (repeat until first verse begins)

    (A)                       (D9)
       
E--------12-----9h10h12--10-9-------
B------------------------------10---
G-----------------------------------
D-----------------------------------
A---0-------------------------------
E-----------------------------------


If you want to match the sound of the mandolin...

Capo 7th fret


   (D)                  (G9)

E--------5----2h3h5--3-2-----------
B--------3---------------3---------
G--------2-------------------------
D---0------------------------------
A----------------------------------
E----------------------------------
 Comments (click here to add a non-facebook comment)
Not bad not bad.
-Moosehead_07 | 1/6/2005
does any body have the tabs thats what its all about for mandolin? oh ya nice job on the tabs
-cbenner | 1/17/2005
Home | FAQs | Privacy | Terms | Advertise | Contact
Top 100 Tab Sites