Give Kudos?
Are you sure you want to give kudos to axehappy?

Add To Songbook?
Are you sure you want to add this song to your songbook?


2,675 bands | 34,839 songs
Search: Register FREE! | Login
Browse Songs:
Browse Bands:
Tool Panel
Discuss This Song

1 2 3 4 5





Brooks & Dunn - Whiskey Under The Bridge (Solo)
Album: Waitin' On Sundown (1994)
Submitter: axehappy (90) on 5/22/02
Month Views: 11 | Total Views: 5,438
Moderator: Ray Terry | Report This Song?
Song Tools

Comment

Songbook

Kudos

Show Chords

Print

Brooks & Dunn - Whiskey Under The Bridge (solo)

By axehappy - axehappy at countrytabs.com


This solo is broken into 2 parts by a steel solo in the middle of it.


***********************************************************************

/   =   slide up                             b   =   bend

~   =   vibrato                              br  =   bend & release

p   =   pulloff                              

***********************************************************************



PART 1


   E                        B           E           E7             A

E---------------------------7----6--5---------------------------------
B-------------------------------------2-3---5-7---8-9----11-12--12-14-
G-----------------------4-6-6b-5b-4b--3-4---6-7---9-9----12-13--13-14-
D--------------2-2-2-4/6-----------------4/6---7/9---9/12-----14------
A-----------2-4-------------------------------------------------------
E--0-0-0-2/4----------------------------------------------------------



E-----17---|
B----------|
G--16b-----|
D----------|
A----------|
E----------|



PART 2


   E                B           E               A                   E
 
E--14b~~-12---------------------10---7--------------------------------|
B----------14b~~-12-------------10br-8b-9p7-7-4/5---4---3---2-0-------|
G-------------------11br-p9-11----------9p7-7-5/6p0-5p0-4p0-2-0-------|
D-----------------------------9------------9------------------------2-|
A--------------------------------------------------------------4p2----|
E-----------------------------------------------------------------3b--|


 Comments (click here to add a non-facebook comment)
Home | FAQs | Privacy | Terms | Advertise | Contact
Top 100 Tab Sites