Give Kudos?
Are you sure you want to give kudos to axehappy?

Add To Songbook?
Are you sure you want to add this song to your songbook?


2,668 bands | 34,775 songs
Search: Register FREE! | Login
Browse Songs:
Browse Bands:
Tool Panel
Discuss This Song

1 2 3 4 5





Chely Wright - Single White Female (Solo)
Album: Single White Female (1999)
Submitter: axehappy (83) on 3/19/02
Month Views: 15 | Total Views: 3,210
Moderator: Sireny123 | Report This Song?
Song Tools

Comment

Songbook

Kudos

Show Chords

Print

Chely Wright - Single White Female (solo)

By axehappy - axehappy at countrytabs.com

Play this with a slide.

***********************************************************************

/   =   slide up                              \   =   slide down

***********************************************************************


E---------------9------9-9/11----------------------------9-
B--9/11\9-7-9/11---9/11------11\9--------9/11-11\9-7-9/11--
G--------------------------------9/11----------------------
D------------------------------------11--------------------
A----------------------------------------------------------
E----------------------------------------------------------


E------9----------------14-14\12-----14-16/18-----14-16/18-----14-
B--9/11-9/11-11\9--12/14--------12/14--------14/16--------14/16---
G-----------------------------------------------------------------
D-----------------------------------------------------------------
A-----------------------------------------------------------------
E-----------------------------------------------------------------


E--------------|
B--14/16-14\---|
G--------------|
D--------------|
A--------------|
E--------------|
 Comments (click here to add a non-facebook comment)
Home | FAQs | Privacy | Terms | Advertise | Contact
Top 100 Tab Sites