Give Kudos?
Are you sure you want to give kudos to guitarviper?

Add To Songbook?
Are you sure you want to add this song to your songbook?


2,732 bands | 35,202 songs
Search: Register FREE! | Login
Browse Songs:
Browse Bands:
Tool Panel
Discuss This Song

1 2 3 4 5



Chet Atkins - Waltz For The Lonely (Tab)
Submitter: guitarviper (1) on 2/18/03
Month Views: 1 | Total Views: 9,232
Moderator: pettyjr | Report This Song?
Song Tools

Comment

Songbook

Kudos

Show Chords

Print

Waltz For The Lonely
Chet Atkins
Tabbed by Guitarviper

This is a waltz remember? Play it freely and let it flow.

--0-----3-----8-----------8-----------5-----3-----0-------0-3-------3-8------
----1-1---0-0---5-5-8-------5-5-8---7-----8-----6-------1---------0-----6-5--
----0-0---0-0---5-5---7-7---5-5---7-7---7-7---5-5-----0---------0------------
----2-2---0-0---5-5---5-5---5-5---7-----5-5---3-5---2---------0---------8----
--3-----2-----0-----------0--------------------------------------------------
--------------------7-----------8-----7---6-5---4-3---------1---------0------

--3---1-0---0---0---0-----0-----------0-----3-----8-----------8---------7-5--
----------6-------6-----3---3---1-------1-1---0-0---5-5-8-------5-5-8---7----
----3-2-----7-7-----6-6---0-------0-----0-0---0-0---5-5---7-7---5-5---7------
------------6-6-----5-5-4---3-----2-----2-2---0-0---5-5---5-5---5-5---7------
----------------0---------------3-----3-----2-----0-----------0--------------
--1-----0---------------------3-------------------------7-----------8-----7--

------5---3-----5---0-------0-3-------3-8-----3---1-0---0---0---0-----0----------
--------8---------6-------1---------0-----6-5---------6-------6-----3---3---1----
----7---7-----5---5-----0---------0-------------3-2-----7-7-----6-6---0-------0--
--5-----5---3-----3---2---------0---------8-------------6-6-----5-5-4---3-----2--
------------------------------------------------------------0---------------3----
--------6-5-------4-3---------1---------0-----1-----0---------------------3------

---8----------10-13-------------6-10-3/4-3---3/4-3---1-----0------8-----------
------8--8-11-------9-------6h8----------6-6-------3---3-3---1-1-----8--8-11--
------8--8-10----------8--8-7------------5-5-4/5-4-----1-1---0-0-----8--8-----
-----10-10-12---------10-10-8---------------------------------------10-10-----
--11-------10-------8-------6--------5---------------3-----3-----11-------10--
---------------------------------------------3--------------------------------

--10-13-------------6-10-3/4-3---3/4-3---3---3-3---4---0---0---0---0---0---0--
--11----9-------6h8----------6-6-------6-----------------1-------1-------1----
--10-------8--8-7------------5-5-3/5-3---5-5---4-4-----------0-------2--------
--12------10-10-8-------------------------------------------------------------
--------8-------6--------5---------------5-----4-----3------------------------
------------------------------------------------------------------------------

----3---3---3---3---3---3---8---8---8---8---8---8-----------------------------
------3-------3-------3-------5-------5-------5-----8---8---8---8---8---8-----
----------0-----------------------5-------------------7-------7-------7-------
------------------0-----------------------5---------------5-------5-----------
--2-----------------------0-----------------------------------------------0---
--------------------------------------------------7---------------------------

--8---8---8---8---8---8---------------------------5---5---5---5------------
----5-------5-------5-----8---8---8---8---7---7-------------------8---8----
--------5-------------------7-------7-------7-------7-------7-------7------
----------------5---------------7-------7---------------5------------------
---------------------------------------------------------------------------
------------------------8-----------------------7---------------6-------5--

--3---3---3---3---0-------0-3-------3-8-----3---1-0---0---0---0-----0--------
----------------6-------1---------0-----6-5---------6-------6-----3---3---1--
----5-------5---------0---------0-------------3-2-----7-7---6---6---0--------
--------3-----------2---------0---------8-------------6-6---5---5-4---3---2--
----------------------------------------------------------0---------------3--
----------------4-3---------1---------0-----1-----0---------------------3----

-----7-8-10-12-13-12---12-13-12---10-12-10----8--------------8-----------------
--10---------9-----9------10-----------------------8----8---------8----8-------
-----------------------12----12---11-12-10----9----9----9----9----9----9-------
-----------------------------------0------------12---12--------12--------------
------------------------0-------0-------------------------10--------10---10----
-------------0-------0---------------------10-8--------------8--------------8--
 Comments (click here to add a non-facebook comment)
Home | FAQs | Privacy | Terms | Advertise | Contact
Top 100 Tab Sites