Give Kudos?
Are you sure you want to give kudos to geetar81?

Add To Songbook?
Are you sure you want to add this song to your songbook?


2,831 bands | 36,009 songs
Search: Register FREE! | Login
Browse Songs:
Browse Bands:
Tool Panel
Discuss This Song

1 2 3 4 5



Chris Cagle - My Love Goes On And On (Lead)
Album: Play It Loud (2000)
Submitter: geetar81 (3) on 2/24/02
Month Views: 9 | Total Views: 4,221
Moderator: jhempel24 | Report This Song?
Song Tools

Comment

Songbook

Kudos

Show Chords

Print

Ok, I'm 100% sure about 90% of what I tabbed. Hope it helps someone who needs it. Thanks - Geetar81


200 Thousand Miles…          …gonna come a day…
E-----------------------------------------------------------------
B-------------------------------------------------------5---3-----
G---------------------------2r^-----------------------------------
D-5r---2r---------2^5---------5^2-------0^2-----------------------
A-----------------------------------------------------------------
E-----------------------------------------------------------------
                 …but darlin’….              …how it is…   
E----7-7r----------------------------------------------------------------------
B-7b---------7^5-----2b-3b-5b--------------7b-7---5^3^5--3-----------------5---
G------------------------------------------------------------------2b^0--------
D------------------------------------------------------------------------------
A------------------------------------------------------------------------------
E------------------------------------------------------------------------------
…without your kiss…
E--------------------------------------------------------------------
B-5/-----------------------------------------------------------------
G--------------------------------------------------------------------
D-------------------5^7^5r------------------------------5b^7---------
A---------------------------------5^7b-------------------------------
E--------------------------------------------------------------------
…a little while…
E-------------------------------------------------------------------------
B-----------------5r--------7b------------------5-------------------------
G-4-7-4-7----------------------6r-------6^7-------------------------------
D----------------------------------------------------------7b--5----------
A--------------------------------------------------------------------7----
E-------------------------------------------------------------------------
…force in the world…
E-------------------------------------------------------
B-------------------------------------------------------
G--------------------4b---------------------------------
D---5-5------7-5------------7-5-7-5-7-------------------
A-7----------------------------------------7------------
E-------------------------------------------------------
….on and on….
E-----------------------------------------------------------------
B-----------------------------------------------------------------
G-4b-4-4-4-4-----3-3-3--------4-2-0-2-----------------------------
D--------------------------------------------2--------------------
A------------------------------------------------5-3-2------------
E--------------------------------------------------------5-3-0----

-Geetar
 Comments (click here to add a non-facebook comment)
Home | FAQs | Privacy | Terms | Advertise | Contact
Top 100 Tab Sites