Give Kudos?
Are you sure you want to give kudos to axehappy?

Add To Songbook?
Are you sure you want to add this song to your songbook?


2,679 bands | 34,861 songs
Search: Register FREE! | Login
Browse Songs:
Browse Bands:
Tool Panel
Discuss This Song

1 2 3 4 5





Clay Davidson - I Can't Lie To Me (with picking) (Chord)
Submitter: axehappy (105) on 2/12/02
Month Views: 19 | Total Views: 5,303
Help! We need a moderator for this artist. | Report This Song?
Song Tools

Comment

Songbook

Kudos

Show Chords

Print

Clay Davidson - I Can't Lie To Me (with picking)

By axehappy - axehappy at countrytabs.com

Drop D

***********************************************************************



INTRO (PICKING *1)


           G                          D
They don't ask, 'cause they know I'll say,
         F                    G                  D
It ain't nothin' just another woman done walked away.
         G                 D
Still on track, no I ain't fazed.
Cadd9   G/B                  Bb6                Asus  A
I rock on all night long, just playin' this masquerade.


      D                       Cadd9
I got everybody thinking, I'm Superman strong,
         G/B
But that big old S ain't on my chest,
   C          F     D
At night when I get home.
                              Cadd9
One look at my reflection, an O is all I see,
      G/B
I can tell 'em all I'm glad you're gone,
        Bb6          A       F      D     
But the truth is.....I can't lie to me   (PICKING *1)



           G               D
Called you up, to get shot down,
         F               G              D
Throw my pride aside and I just cry out loud.
        G                       D
Call my bluff, not just look at me,
  Cadd9           G/B          Bb6             Asus   A 
A fool in love, and all tore up, down here on my knees.


      D                       Cadd9
I got everybody thinking, I'm Superman strong,
         G/B
But that big old S ain't on my chest,
   C          F     D
At night when I get home.
                              Cadd9
One look at my reflection, an O is all I see,
      G/B
I can tell 'em all I'm glad you're gone,
        Bb6          A       F      G     
But the truth is.....I can't lie to me 


G  D  F  G  D  G  D  Cadd9  A
INSTRUMENTAL


      D                       Cadd9
I got everybody thinking, I'm Superman strong,
         G/B
But that big old S ain't on my chest,
   C          F     D
At night when I get home.
                              Cadd9
One look at my reflection, an O is all I see,
      G/B
I can tell 'em all I'm glad you're gone,
        Bb6          A       F      D     
But the truth is.....I can't lie to me 
        Bb6                         D
Oh, the truth is.....I can't lie to me. (PICKING *2)



***********************************************************************


PICKING *1


   D                    C(add9)     

E---------------------------0-0-------------
B----------3----------------3-3-------------
G------0h2-2-----0----------0-0-----0-------
D------0------2h4-4p2p0-----2-2--2h4-4p2p0--
A--0-0------------------3-3-3-3-------------
D--0-0--------------------------------------

   G/B               C(add9)        

E------3-3--------------------------------|
B------3-3--------------------------------|
G------0-0-----0-----0--------------------|
D------0-0--2h4-4p2p0-4p2p0---------------|
A--2-2-2-2-----------------3--2-3-2-0-----|
D------------------------------------3b---|



PICKING *2


   D                    C(add9)     

E---------------------------0-0-------------
B----------3----------------3-3-------------
G------0h2-2-----0----------0-0-----0-------
D------0------2h4-4p2p0-----2-2--2h4-4p2p0--
A--0-0------------------3-3-3-3-------------
D--0-0--------------------------------------

   G/B               C(add9)            D

E------3-3------------------------------2-----|
B------3-3------------------------------3-----|
G------0-0-----0-----0------------------2-----|
D------0-0--2h4-4p2p0-4p2p0------0------0-----|
A--2-2-2-2-----------------3--2-3-------0-----|
D---------------------------------3-3b--0-----|


 
 Comments (click here to add a non-facebook comment)
Home | FAQs | Privacy | Terms | Advertise | Contact
Top 100 Tab Sites