Give Kudos?
Are you sure you want to give kudos to axehappy?

Add To Songbook?
Are you sure you want to add this song to your songbook?


2,680 bands | 34,871 songs
Search: Register FREE! | Login
Browse Songs:
Browse Bands:
Tool Panel
Discuss This Song

1 2 3 4 5





Clay Walker - This Woman And This Man (Intro)
Album: If I Could Make A Living (1994)
Submitter: axehappy (131) on 1/22/02
Month Views: 32 | Total Views: 8,156
Moderator: jhempel24 | Report This Song?
Song Tools

Comment

Songbook

Kudos

Show Chords

Print

Clay Walker - This Woman And This Man (intro)

By axehappy - axehappy at countrytabs.com

***********************************************************************

h   =   hammer-on               /   =   slide up

\   =   slide down              br  =   bend & release

***********************************************************************


E------------------------5/9-5-4--------------------------
B------------------------7/7-7-5-5h7\---------------------
G-----2h4-4/6-4h6p4\2------------7--\---2h4-4/6-4br-2-----
D--2h4---------------2/4-------------2h4-------------2/4--
A---------------------------------------------------------
E---------------------------------------------------------

E--5/7\5-4-0-5---|
B--7/9\7-5-0-7---|
G------------7---|
D------------7---|
A------------5---|
E----------------|
 Comments (click here to add a non-facebook comment)
Home | FAQs | Privacy | Terms | Advertise | Contact
Top 100 Tab Sites