Give Kudos?
Are you sure you want to give kudos to jpatt57?

Add To Songbook?
Are you sure you want to add this song to your songbook?


2,681 bands | 34,877 songs
Search: Register FREE! | Login
Browse Songs:
Browse Bands:
Tool Panel
Discuss This Song

1 2 3 4 5





Cole Swindell - Ain't Worth The Whiskey (Solo)
Submitter: jpatt57 (0) on 4/21/15
Month Views: 19 | Total Views: 2,632
Moderator: brownabd | Report This Song?
Song Tools

Comment

Songbook

Kudos

Show Chords

Print

Cole Swindell

Ain't Worth the Whiskey



E---------------------------------------------------------------------------------------------------------------
B---------------------------------------------------------------------------------------------------------------
G---------------------5-7-7b9~~~-7b9~~r7--7-5-7-5b6-------------------------------------------------------------
D-----5b7--7~~--5-7---------------------------------7-5-7~~-----------------------------------------------------
A---------------------------------------------------------------------------------------------------------------
E---------------------------------------------------------------------------------------------------------------

E-----------5---------------------------------------------------------------------------------------------------
B-----8b10----8-5------------------------10----10--14b15r14-14b15r14-14b15r14--10-10----------------------------
G------------------7p5-7-7-5-----5-7/12-----12------------------------------------------------------------------
D----------------------------5h7--------------------------------------------------------------------------------
A---------------------------------------------------------------------------------------------------------------
E---------------------------------------------------------------------------------------------------------------

E---5---5-5--5--------12--12-12-12------------------------------------------------------------------------------
B---8bh10-10-10r------15bh17-17-17------------------------------------------------------------------------------
G---------------------------------------------------------------------------------------------------------------
D---------------------------------------------------------------------------------------------------------------
A---------------------------------------------------------------------------------------------------------------
E---------------------------------------------------------------------------------------------------------------

 Comments (click here to add a non-facebook comment)
Home | FAQs | Privacy | Terms | Advertise | Contact
Top 100 Tab Sites