Give Kudos?
Are you sure you want to give kudos to WildCard76?

Add To Songbook?
Are you sure you want to add this song to your songbook?


2,629 bands | 34,421 songs
Search: Register FREE! | Login
Browse Songs:
Browse Bands:
Tool Panel
Discuss This Song

1 2 3 4 5





Collin Raye - I Think About You (Intro)
Album: I Think About You (1995)
Submitter: WildCard76 (176) on 12/11/02
Month Views: 22 | Total Views: 3,030
Moderator: mo_freestyle | Report This Song?
Song Tools

Comment

Songbook

Kudos

Show Chords

Print

I THINK ABOUT YOU
Collin Raye

Intro

---------------------------------------
---------------------------------------
-5---5---------------------------------
-5---5----5---5----2---2----3---3------
-3---3----5---5----2---2----3---3------
----------3---3----0---0----1---1------

---------------------------------------
---------------------------------------
-5---5---------------------------------
-5---5----5---5----2---2----3---3------
-3---3----5---5----2---2----3---3------
----------3---3----0---0----1---1------

 Comments (click here to add a non-facebook comment)
Home | FAQs | Privacy | Terms | Advertise | Contact
Top 100 Tab Sites