Give Kudos?
Are you sure you want to give kudos to mammy?

Add To Songbook?
Are you sure you want to add this song to your songbook?


2,831 bands | 36,024 songs
Search: Register FREE! | Login
Browse Songs:
Browse Bands:
Tool Panel
Discuss This Song

1 2 3 4 5



Cory Morrow - 21 Days (Lead)
Album: Double Exposure (Live) (2003)
Submitter: mammy (16) on 5/4/03 2 comments
Month Views: 27 | Total Views: 7,254
Moderator: dantheman85x | Report This Song?
Song Tools

Comment

Songbook

Kudos

Show Chords

Print

21 Days - intro and lead.
by Cory Morrow

~^~^~^~^~^~^~^~^~^~^~^~^~^~^~^~^~^~^~^~^~^~^~^~^~^~^~^~^~^~^~^~^~^~^
INTRO
  A                       B
e|-----------------------|---------------------------|e
B|-----------------------|---------------------------|B
G|-----------------------|---------------------------|G
D|----5-5--------------7-|-----5-5-------------------|D
A|5h7-----7p5h7--0---5---|-5h7-----7p5h7--0----------|A
E|-----------------7-----|------------------7--5--3--|E
                                                                              
Play part A after the first verse, 0:57

LEAD
 start this at 1:55
e|---------------------------------------------------7b-7-10-8-7--------|e
B|----------------------------------------------8-10-------------10b-8--|B
G|--------------------------------------5/7-7-9-------------------------|G
D|----------5-----------------5-7p5-9p5---------------------------------|D
A|--77----5---77-----5----5-7-------------------------------------------|A
E|----5-7--------5-7----7-----------------------------------------------|E
                                                                              
~^~^~^~^~^~^~^~^~^~^~^~^~^~^~^~^~^~^~^~^~^~^~^~^~^~^~^~^~^~^~^~^~^~^
enjoy :)
mammycc_05 at yahoo.com
 Comments (click here to add a non-facebook comment)
the intro is correct, however that is not the way john carrol plays it...i have his version which is much easier to play and sounds just as good if not better, ill tab it out one of these days
-brewsky0095 | 5/7/2003
how can u critizie someones tabs...then mention that u have a better tab, u just don't feel like posting it...nice...for real though, if u know a good one, put it up, i am trying to be as accurate as possible
-chi61 | 5/3/2004
Home | FAQs | Privacy | Terms | Advertise | Contact
Top 100 Tab Sites