Give Kudos?
Are you sure you want to give kudos to axehappy?

Add To Songbook?
Are you sure you want to add this song to your songbook?


2,668 bands | 34,785 songs
Search: Register FREE! | Login
Browse Songs:
Browse Bands:
Tool Panel
Discuss This Song

1 2 3 4 5





Cory Morrow - Goin Straight To Hell (Solo)
Album: Outside The Lines (2002)
Submitter: axehappy (115) on 2/16/03
Month Views: 20 | Total Views: 4,368
Moderator: dantheman85x | Report This Song?
Song Tools

Comment

Songbook

Kudos

Show Chords

Print

Cory Morrow  -  Goin' Straight To Hell  (solo)

By axehappy  -  axehappy at countrytabs.com


Played with a really fuzzy sounding overdrive so you can only just hear
the notes...lol


*********************************************************************************

sb   =   slow bend                                b   =   bend

bh   =   bend & hold                              r   =   release bend

\    =   slide down                               br  =   bend & release

~    =   vibrato                                  h   =   hammer-on

p    =   pulloff                                  \   =   slide down

*********************************************************************************



E--10----10--10--10--10--10--10---10----10--10-10---10-------------------------
B--10sb--10b-10b-10b-10b-10b-10bh-10r-8-10b-10-10-8--8\7-7---------------------
G---------------------------------------------------------9-9br-7-7\5-7br-7b~r-
D----------------------------------------------------------------9-------------
A------------------------------------------------------------------------------
E------------------------------------------------------------------------------


E----------------------------------------------------------------------------
B----------------------------------------------------------------------------
G--5-5h7----------0-------------------------------------------7-7---7/9-7-7\-
D---7---5/7-5---5-3/5-2-0-0-----------------------5-5h7-5-----7-7h9-7/9-7-7\-
A------------5h7-----------3-3-2-2----------------5------7-7/9-9---9---9-----
E---------------------------------3-3/5-3~~5p3-5/7-7-------------------------


E------------------------------------------------------------------|
B------------------------------------------------------------------|
G-----5-5---5-7-5-7br-5-5-5-0-3\2-0--------------------------------|
D-----5-5-7-5-7-5-7br-5-5-5-0-3\2-0-0---0-0----------0-2p0-3/5~~---|
A--5/7-----------------7------------3\2-0-1/2-----0h2--------------|
E--------------------------------------------3\2-3-----------------|


 Comments (click here to add a non-facebook comment)
Home | FAQs | Privacy | Terms | Advertise | Contact
Top 100 Tab Sites