Give Kudos?
Are you sure you want to give kudos to axehappy?

Add To Songbook?
Are you sure you want to add this song to your songbook?


2,680 bands | 34,871 songs
Search: Register FREE! | Login
Browse Songs:
Browse Bands:
Tool Panel
Discuss This Song

1 2 3 4 5





Cory Morrow - You Don't Really Love Me (Solo)
Album: The Cory Morrow Band (2001)
Submitter: axehappy (131) on 4/22/03
Month Views: 23 | Total Views: 2,774
Moderator: dantheman85x | Report This Song?
Song Tools

Comment

Songbook

Kudos

Show Chords

Print

Cory Morrow  -  You Don't Really Love Me  (solo)

By axehappy  -  axehappy at countrytabs.com


*************************************************************************

h     =   hammer-on                             /     =   slide up

\     =   slide down                            p     =   pulloff

b     =   bend                                  

*************************************************************************



   B7           A               E  B7                E               A
 
E----------------------------------------------------------------------
B------------------------------------------------------10-9h10p9-------
G-----------9-9-----9--9--9--9--9---11/12\11p9----11b-----------11--9--
D-------------9h11--11-11-11-11-9-------------11-9----------------11---
A-----7-9/11-----------------------------------------------------------
E--7h9-----------------------------------------------------------------

            E                 Dbm7              F#                  E

E------------14b-12-14--12\9-----9------------------------------------
B--12/14-14-----------14----12b---9-12-9------------------------------
G---------------------------------------11-9----11b-9--------------9--
D-------------------------------------------11-9-----11--11p9--9h11---
A------------------------------------------------------------11-------
E---------------------------------------------------------------------

            B7    A     E               B7     A            E
 
E-----7-7-7-7-5-4-5-4-2----0---5-4h5p4-----4-5-4h5p4-----------
B-------------------------------------7-5-7---------7-5-5---5--
G--6/8--8-8-8-6-4-6-4-2-0h1-----------------------------4h6-4--
D--------------------------------------------------------------
A--------------------------------------------------------------
E--------------------------------------------------------------

        B7            A       

E-----7-7-5-4-5-4-4-4h5---|
B-------------------------|
G--6/8--8-6-4-6-4-4-4h6---|
D-------------------------|
A-------------------------|
E-------------------------|


 Comments (click here to add a non-facebook comment)
Home | FAQs | Privacy | Terms | Advertise | Contact
Top 100 Tab Sites