Give Kudos?
Are you sure you want to give kudos to DaveWH?

Add To Songbook?
Are you sure you want to add this song to your songbook?


2,987 bands | 36,846 songs
Search: Register FREE! | Login
Browse Songs:
Browse Bands:
Tool Panel
Discuss This Song

1 2 3 4 5



Cross Canadian Ragweed - 17 (lead) (Lead)
Album: Cross Canadian Ragweed (2002)
Submitter: DaveWH (3) on 4/11/03 2 comments
Month Views: 355 | Total Views: 13,932
Moderator: Ray Terry | Report This Song?
Song Tools

Comment

Songbook

Kudos

Show Chords

Print

"17"  by Cross Canadian Ragweed -

Solo         tabbed by davewh at cox.net

/ = slide up
h = hammer on
p = pulloff
b = bend
r = release bend
                   *(see note below)
|---------------------------------|---------------------------|
|---------------------------------|-3-------------------------|
|-/5---4--2------0-4-0------------|----5-4--------0-0---------|
|------------0h2-------4p2-0-5-0--|---------0h2h3-----3p2-0-0-|
|---------------------------------|---------------------------|
|---------------------------------|---------------------------|



|-----------------------------------------|----------------|
|-----------------------------------------|----------3---3-|
|-12---11---9---7---5---4---2---0---------|-----0-2--2b--0-|
|----0----0---0---0---0---0---0-0--(hold)-|-0h2------------|
|-----------------------------------------|----------------|
|-----------------------------------------|----------------|



|--------------|-------------3--------3-|
|---------3--3-|--------3----3--------3-|
|-------0----0-|----0---2b------r2-0--0-|
|-0h2h3------0-|-0h2--2-----------------|
|--------------|------------------------|
|--------------|------------------------|


*note : the 4th fret on the G string could be played as Open on the B string,
which is how the other tab for this shows it.  I feel this way is easier for
me to play.
 Comments (click here to add a non-facebook comment)
that is not right at all

-zkallen | 3/17/2005
I'm sorry to hear that you are tone deaf.
-DaveWH | 3/18/2005
Home | FAQs | Privacy | Terms | Advertise | Contact
Top 100 Tab Sites