Give Kudos?
Are you sure you want to give kudos to lmofle?

Add To Songbook?
Are you sure you want to add this song to your songbook?


2,719 bands | 35,141 songs
Search: Register FREE! | Login
Browse Songs:
Browse Bands:
Tool Panel
Discuss This Song

1 2 3 4 5



Cross Canadian Ragweed - 17 (Intro)
Album: Cross Canadian Ragweed (2002)
Submitter: lmofle (327) on 11/25/02 12 comments
Month Views: 15 | Total Views: 24,676
Sound Byte: Listen
Moderator: Ray Terry | Report This Song?
Song Tools

Comment

Songbook

Kudos

Show Chords

Print

Intro to 17 by Cross Canadian Ragweed

Play 4 times
E--------------------------|
B--------------------------|
G---4-4-2-0---0-2-4-2-0----|
D-----------2-----------2--|
A--------------------------|
E--------------------------|
 Comments (click here to add a non-facebook comment)
great tab mofle.
-yinielin | 2/22/2003
I cant get this to work and i like this song. Could you do a sound byte

-wildbill2003 | 4/21/2003
thanx man!! sounds good
-wildbill2003 | 4/21/2003
What is not perfect about this? Why would you give it a 9???
-yinielin | 6/22/2003

-lmofle | 6/22/2003
HEY I SAW THEM IN CONCERT AND THE GUITARS JUST STRUMMED, A FIVE
STRING BASS PICKES IT OUT. I THOUGHT IT WAS WEIRD.

-vogie | 10/19/2003
no its not, its played on a regular guitar
-parmorrow | 1/26/2004
Well I can say that Tludogs version is what Cody plays, but i have
also seen him play it the way lmofle has it. Either one works and
that is the beauty of guitar...

-VinceBarrientos | 3/17/2004
The other way this can be played is as double stops, as follows

E--------------------------------------------------------------
B--3-3-3-3---3-3-3------------3-3-3-3---3-3-3------------------
G--4-4-2-0-0-0-2-4---2-0------4-4-2-0-0-0-2-4---2-0----( x 2 )-
D----------2-------------2-------------------------------------
A--------------------------------------------------------------
E--------------------------------------------------------------


-dbeaverboner | 4/6/2004
great music
-karlariola | 10/2/2004
Canada, your awesome
-karlariola | 10/2/2004
Hey dbeaverboner, could tab your version out as a song on the list and put a soundbyte?
-bigblob03 | 6/14/2005
Home | FAQs | Privacy | Terms | Advertise | Contact
Top 100 Tab Sites