Give Kudos?
Are you sure you want to give kudos to mammy?

Add To Songbook?
Are you sure you want to add this song to your songbook?


2,831 bands | 36,009 songs
Search: Register FREE! | Login
Browse Songs:
Browse Bands:
Tool Panel
Discuss This Song

1 2 3 4 5



Cross Canadian Ragweed - Down At The Harbor (Intro)
Album: Live and Loud at the Wormy Dog (2004)
Submitter: mammy (8) on 3/24/03 9 comments
Month Views: 19 | Total Views: 6,709
Moderator: Ray Terry | Report This Song?
Song Tools

Comment

Songbook

Kudos

Show Chords

Print

Down at the Harbor - Intro
by Cross Canadian Ragweed


e------------------------------------------------------e
B------------------------------------------------------B
G-----------2--4/6-6-4-2-2----------2--4/6-6-6-4-2-----G
D------------------------------------------------------D 
A---0-0-3-4-----------------0-0-3-4--------------------A
E------------------------------------------------------E
                                                                              
play 2 times


enjoy :)
mammycc_05 at yahoo.com
 Comments (click here to add a non-facebook comment)
Great job, I've been looking for this for a while now. Good to see
that someone else likes this song besides me!
-rockonCCR | 3/30/2003
this is a helluva song!!!
-kyle22baller | 5/4/2003
i play it a lot different...

e-----------0-0------
B-----------2-2------
G---------------4-2-2
D---------2----------
A-0-0-2-4------------
E-------------------- X 2

and use A-E-D for the rest of the song
-texasmusic | 5/7/2003
How about trying this......

E-----------------------------
B-------------2-3\5-5-5/3---2-
G---------2-4-2-4\6---6/4h3-2-
D-2-2-----2-4-----------------
A-0-0-2-4---------------------
E-----------------------------

E-----------------------------
B---------------3\5-5-3-2-----
G---------2-4-2-4\6---4-2-----
D-2-2-----2-4-2---------------
A-0-0-2-4---------------------
E-----------------------------

play twice each time
-partsman_21 | 5/16/2004
make it simple try this
E------------------------
B-------------5-5--3--2--
G-2-2-----2-2-6-6--4--2--
D-2-2-----2-2---------0--
A-0-0-3-4-0-0------------
E------------------------

Remenber and this is important be drunk when playing
later Donkey
-Delta_Shanty | 1/21/2005
Anyone know if Mike Mcclure ever recorded this song (since he wrote it). And if he did, where can I find that recording.
-oppie311 | 2/13/2005
Great song. Great tab. Nice one.
-texanmusician | 4/15/2005
the true tab sorry bout the delay

-------------------------------------------------------5-5-3----------------------------2-2-----2--6-6-4-2---2-2-----2--7-7--4--2--2-2-----2--------2---2-2-----2--7-7--4--2---0-0-2-4-0--------0---0-0-2-4-0----------0-----------------------------------------------

the only quote i have is the crumple of a beer can 30.06
lat Donk

only if your you can see triple will this make change

-Delta_Shanty | 6/19/2005
-------------------------------------------
------------5-5-3--------------------------
2-2-----2---6-6-4-2----2-2-----2-7-7--4--2-
2-2-----2---------2----2-2-----2-7-7--4--2-
0-0-2-4-0---------0----0-0-2-4-0---------0-
-------------------------------------------

mix and match this stuff sorry didn't put it on earlier
late
donk
-Delta_Shanty | 6/19/2005
Home | FAQs | Privacy | Terms | Advertise | Contact
Top 100 Tab Sites