Give Kudos?
Are you sure you want to give kudos to mammy?

Add To Songbook?
Are you sure you want to add this song to your songbook?


2,831 bands | 36,024 songs
Search: Register FREE! | Login
Browse Songs:
Browse Bands:
Tool Panel
Discuss This Song

1 2 3 4 5



Cross Canadian Ragweed - Hey, Hey, My, My (Intro)
Album: Live and Loud at Billy Bob's Texas (2002)
Submitter: mammy (15) on 4/11/03 5 comments
Month Views: 15 | Total Views: 7,398
Moderator: Ray Terry | Report This Song?
Song Tools

Comment

Songbook

Kudos

Show Chords

Print

Hey, Hey, My, My - intro
by Cross Canadian Ragweed

The other tab is correct but....is played in 
the key of Am and is supposed to be played in G.
~^~^~^~^~^~^~^~^~^~^~^~^~^~^~^~^~^~^~^~^~^~^~^~^~^~^~^~^~^~^~^~^~^~^

      e----------------------------3------------e
      B----------------------------3------------B
      G----------------------------3------------G
*1*   D----------------------------5------------D
      A-------------3-3--5---------5------------A
      E---3---3-5-6--------6-5-3---3------------E
                                                                              

      e-------------------------3--------------e
      B-------------------------3--------------B
      G-------------------------5--------------G
*2*   D-------------------------5--------------D
      A-------------3--3-5--3---3--------------A
      E---3---3-5-6----------------------------E
                                                                              

 *1* two times, *2* one time, *1* one time

~^~^~^~^~^~^~^~^~^~^~^~^~^~^~^~^~^~^~^~^~^~^~^~^~^~^~^~^~^~^~^~^~^~^

enjoy :)
mammycc_05 at yahoo.com
 Comments (click here to add a non-facebook comment)
which album did you tab this off of???? i used live at the wormy dog.

are you sure its this way??? to me it sounds like it would be


----------------------6let ring out----
--------------------------
---------------------------
----------------------------
--------3-5v-5-3-0----------------
-3--3--6-----------3-------------

the v means to add a vibrato to the note and repeat that a few times
and on the one different i usually just add a little random blues
lick,,,but i could be wrong
-btween2thieves | 4/13/2003
I'd have to give this one to Mammy...I tabbed it off the live version
as well...
-lmofle | 4/14/2003
I used the Live at the Wormy Dog version too...
and it sounds dead on to me. You're right about
the 6th fret, high E and letting it ring though.
-mammy | 4/15/2003
I think everything sounds right at the beggining but the the end sounds like this...

------------------------6(let ring)--
------------------------6(let ring--
--------------------------
--------------------------
-----------3--3-5------------
--3--3-5-6--------6-5-3----------
-jdd912 | 3/29/2004
I think everything sounds right at the beggining but the the end sounds like this...

------------------------6(let ring)--
------------------------6(let ring--
--------------------------
--------------------------
-----------3--3-5------------
--3--3-5-6--------6-5-3----------
-jdd912 | 3/29/2004
Home | FAQs | Privacy | Terms | Advertise | Contact
Top 100 Tab Sites