Give Kudos?
Are you sure you want to give kudos to mammy?

Add To Songbook?
Are you sure you want to add this song to your songbook?


2,831 bands | 36,009 songs
Search: Register FREE! | Login
Browse Songs:
Browse Bands:
Tool Panel
Discuss This Song

1 2 3 4 5



Cross Canadian Ragweed - On Your Own (Intro)
Album: Live and Loud at Billy Bob's Texas (2002)
Submitter: mammy (8) on 1/8/03
Month Views: 8 | Total Views: 5,161
Moderator: Ray Terry | Report This Song?
Song Tools

Comment

Songbook

Kudos

Show Chords

Print

On Your Own
by Cross Canadian Ragweed

Written by:
Jason Boland/Cody Canada


Ok, the 'b' (bend) in the first staff and the third staff is bent 
down - towards the little E string. The bends in the second and 
fourth staff are bent upwards - towards the big E string. :)

~^~^~^~^~^~^~^~^~^~^~^~^~^~^~^~^~^~^~^~^~^~^~^~^~^~^~^~^~^~^~^~^~^~^~

e----------------------------------------------------------------e
B-15-------------------------------------------------------------B
G----14b-11-11-12-11-12-11-12/14-12-12\11-11-11\9----------------G
D----------------------------------------------------------------D
A----------------------------------------------------------------A
E----------------------------------------------------------------E
                                                                              

e-----------------------------------------------------------------e
B-10-7b-----------------------------------------------------------B
G-------7-7----10b-7----------------------------------------------G
D-----------7-----------------------------------------------------D
A-----------------------------------------------------------------A
E-----------------------------------------------------------------E
                                                                              

e-----------------------------------------------------------------e
B-15--------------------------------------------------------------B
G----14b-11-11-12-11-12-11-12/14-12-12\11-11-11\9-----------------G
D-----------------------------------------------------------------D
A-----------------------------------------------------------------A
E-----------------------------------------------------------------E
                                                                              

e------------------------------------------------------------------e
B------------------------------------------------------------------B
G-------7-9-7-7--9b7---7-9b7---7-9b9-7-----------------------------G
D-7-7/9--------------9-------9-------------------------------------D
A------------------------------------------------------------------A
E------------------------------------------------------------------E
                                                                              
~^~^~^~^~^~^~^~^~^~^~^~^~^~^~^~^~^~^~^~^~^~^~^~^~^~^~^~^~^~^~^~^~^~^~
Symbols -
/  =  slide up
\  =  slide down
b  =  bend
p  =  pulloff


enjoy :)
mammycc_05 at yahoo.com
 Comments (click here to add a non-facebook comment)
Home | FAQs | Privacy | Terms | Advertise | Contact
Top 100 Tab Sites