Give Kudos?
Are you sure you want to give kudos to rock_n_roll?

Add To Songbook?
Are you sure you want to add this song to your songbook?


2,831 bands | 36,009 songs
Search: Register FREE! | Login
Browse Songs:
Browse Bands:
Tool Panel
Discuss This Song

1 2 3 4 5



Darius Rucker - It Won't Be Like This For Long - w/ sound byte (Intro)
Album: Learn To Live (2008)
Submitter: rock_n_roll (1) on 1/16/09
Month Views: 10 | Total Views: 5,119
Sound Byte: Listen
Moderator: mo_freestyle | Report This Song?
Song Tools

Comment

Songbook

Kudos

Show Chords

Print

Tabbed by: rock_n_roll


Tuning: standard

e|--4--4---------------------------------------------------------------------|
B|--5--4---------------------------------------------------------------------|
G|---------/6--4-------------------------------------------------------------|
D|----------------/6-----6h7p6----4---2--/6----------------------------------|
A|----------0----------------------------------------------------------------|
E|-----------------0---0-----------------------------------------------------|
            ^      ^   ^    
e|--4--4----------------------------------0----------------------------------|
B|--5--4----------------------------------0----------------------------------|
G|---------/6--4--------------------------1----------------------------------|
D|----------------/6-----6h7p6----4---2---2----------------------------------|
A|----------0-----------------------------2----------------------------------|
E|-----------------0---0------------------0----------------------------------|
            ^      ^   ^     

^ = let ring



| /  slide up
| \  slide down
| h  hammer-on
| p  pull-off
| ~  vibrato
| +  harmonic
| x  Mute note
===============================================================================
 Comments (click here to add a non-facebook comment)
Home | FAQs | Privacy | Terms | Advertise | Contact
Top 100 Tab Sites