Give Kudos?
Are you sure you want to give kudos to jamesdacrazy?

Add To Songbook?
Are you sure you want to add this song to your songbook?


2,836 bands | 36,086 songs
Search: Register FREE! | Login
Browse Songs:
Browse Bands:
Tool Panel
Discuss This Song

1 2 3 4 5



Darius Rucker - It Won't Be Like This For Long (Intro)
Album: Learn To Live (2008)
Submitter: jamesdacrazy (0) on 8/5/09
Month Views: 4 | Total Views: 3,665
Moderator: mo_freestyle | Report This Song?
Song Tools

Comment

Songbook

Kudos

Show Chords

Print

-------------------------------------------------------------------------------
			   It won't be like this for long 
                                        - 
                                  Darius Rucker
-------------------------------------------------------------------------------
Tabbed by:Jamesdacrazy
Email:crazydajames at googlemail.com

Tuning:E A D G B e

e|------------------------------------------------------------------0---------|
B|--4/5-4------------------------------4/5-4------------------------0---------|
G|---------4/6-4-----------------------------4/6-4------------------1---------|
D|---------------4/6--66b6r--4-2--4/6--------------4/6--66b6r--4-2--2---------|
A|---------0-----------------2-2-------------0-----------------2-2--2---------|
E|---------------0-------0--------0----------------0-------0--------0---------|
 Comments (click here to add a non-facebook comment)
Home | FAQs | Privacy | Terms | Advertise | Contact
Top 100 Tab Sites