Give Kudos?
Are you sure you want to give kudos to axehappy?

Add To Songbook?
Are you sure you want to add this song to your songbook?


2,679 bands | 34,861 songs
Search: Register FREE! | Login
Browse Songs:
Browse Bands:
Tool Panel
Discuss This Song

1 2 3 4 5





Darryl Worley - A Good Day To Run (Lead)
Album: Have You Forgotten (2003)
Submitter: axehappy (108) on 2/13/02 1 comment
Month Views: 10 | Total Views: 5,379
Moderator: Ray Terry | Report This Song?
Song Tools

Comment

Songbook

Kudos

Show Chords

Print

Darryl Worley - A Good Day To Run (lead)

By axehappy - axehappy at countrytabs.com

***********************************************************************

b   =   bend                            p   =   pulloff

pbr =   pre-bend & release              br  =   bend & release

bh  =   bend & hold                     r   =   release bend

/   =   slide up                        

***********************************************************************



Lead fill in intro


E----------------|
B----------------|
G----------------|
D--4-6b-6p4--4---|
A----------------|
E----------2-----|


Lead fill in verse 1 after "and this ain't gonna last".


E--2---------------------|
B------------------------|
G---4pbr-----------------|
D--------6br-4---4-------|
A-------------4-6-6p4----|
E--------------------2---|



Lead fill in verse 1 after "I've come to this conclusion".


E------6-----------|
B---------9--------|
G--8bh--8-8r-6-----|
D--------------9---|
A------------------|
E------------------|



Lead fill in verse 1 after "I can't make a move to fast".


E------------------|
B------------------|
G--2/3-------------|
D--3/4-6p5p4---4---|
A-----------6p4----|
E------------------|




Lead solo


E-----------------------------------------------------------|
B--------------------------------------7-5------------------|
G-------6-------6-------6-----------------6pbr--------------|
D-----4-6br-4-4-6br-4-4-6br-4-6----4-6b-------6br-4-2-1-----|
A--4-6-------6-------6----------4-6--------------------4----|
E-------------------------------------------------------2---|



 Comments (click here to add a non-facebook comment)
I received a report on this tab by stevenw.

This song is completely incorrect. so far I am on the fourth lick, which is really like the seventh lick in the song, and I have yet to find a correct note. How could you post this? I may just have to post my own!

axehappy is one of the top tabbers on this site, so if you think his is wrong, submitt your version and we will critique your work.
-Ray Terry | 4/23/2009
Home | FAQs | Privacy | Terms | Advertise | Contact
Top 100 Tab Sites