Give Kudos?
Are you sure you want to give kudos to Andrew?

Add To Songbook?
Are you sure you want to add this song to your songbook?


2,749 bands | 35,293 songs
Search: Register FREE! | Login
Browse Songs:
Browse Bands:
Tool Panel
Discuss This Song

1 2 3 4 5



Darryl Worley - Awful, Beautiful Life (Solo)
Album: Darryl Worley (2004)
Submitter: Andrew (0) on 10/14/04 2 comments
Month Views: 9 | Total Views: 4,058
Moderator: Ray Terry | Report This Song?
Song Tools

Comment

Songbook

Kudos

Show Chords

Print

Let's try this again. The last time I tried to post this 
it was all screwed up.



--------7-5------------------------------------------------
-5br--5b---7-6-7-6^5---------------8/6--6/5-5--------------
----7---------------7-4-7-4-7--------------7-7-5-7~--------
------------------------------7-8-9---7--------------------
-----------------------------------------------------------
-----------------------------------------------------------
                      p.  p.  p....


p. = palm mute
br = bend and release
b  = bend	
^  = pull-off
/  = slide
~  = vibrato

please rate this tab. If one of you more experienced 
tabbers could help me with the other half i woould 
appreciate it
 Comments (click here to add a non-facebook comment)
Your positions are awkward. This would be very hard and uncomfortable to play how you have it tabbed out. Try tabbing it again out of this postion before it goes into the blues scale:

---------------------7-10----
----------------7-10---------
------------7-9--------------
--------7-9------------------
----7-9----------------------
-10--------------------------


-logansams | 12/6/2004
That makes it considerably simpler. Thank you
for your insight.
-Andrew | 12/6/2004
Home | FAQs | Privacy | Terms | Advertise | Contact
Top 100 Tab Sites