Give Kudos?
Are you sure you want to give kudos to Koichi Kondo?

Add To Songbook?
Are you sure you want to add this song to your songbook?


2,760 bands | 35,441 songs
Search: Register FREE! | Login
Browse Songs:
Browse Bands:
Tool Panel
Discuss This Song

1 2 3 4 5



Darryl Worley - Too Many Pockets (Bass)
Album: Have You Forgotten (2003)
Submitter: Koichi Kondo (411) on 11/4/08
Month Views: 20 | Total Views: 4,512
Moderator: Ray Terry | Report This Song?
Song Tools

Comment

Songbook

Kudos

Show Chords

Print

Too Many Pockets
Written by Steve Leslie & Darryl Worley
Recorded by Darryl Worley

Intro.
   G                             C
G |0---|0---|0---|0---|----|----|----|----|
D |--0-|--03|--0-|-30-|--0-|----|----|----|
A |----|----|----|---2|----|--02|3---|3-02|
E |----|----|----|----|3---|3---|--3-|-3--|


Verse 1
   C                             G
G |----|----|----|----|----|----|0---|0---|
D |----|----|----|----|----|--23|--0-|-30-|
A |3---|3--0|3---|3--0|3---|3---|----|---2|
E |--3-|--3-|--3-|--3-|--3-|----|----|----|

   G                             C
G |----|---0|----|----|0---|----|----|----|
D |--0-|--0-|--0-|--02|--0-|----|----|----|
A |----|----|----|----|----|--02|3---|320-|
E |3---|3---|3---|3---|----|3---|--3-|---3|


Verse 2
D.S. 
   C                             G
G |----|----|----|----|----|----|0---|0---|
D |----|----|----|----|----|--23|--0-|-30-|
A |3---|3--0|3---|3--2|3---|3---|----|---2|
E |--3-|--3-|--3-|--3-|--3-|----|----|----|

   G                             C
G |----|---0|----|0---|----|----|----|----|
D |--0-|--0-|--0-|-30-|--0-|----|----|--02|
A |----|----|----|---2|----|--02|3---|3---|
E |3---|3---|3---|----|3---|3---|--3-|----|


Chorus
   F         C         G         C
G |----|----|----|----|0---|----|----|----|
D |3---|3-30|----|--23|--0-|----|----|--02|
A |--3-|----|3---|3---|----|--02|3---|33--|
E |----|----|--3-|----|----|3---|--3-|----|

   F         C         D         G
G |----|----|----|----|----|----|0---|----|
D |3---|3-0-|----|--21|0---|0---|----|----|
A |--3-|----|3---|3---|--0-|--00|----|----|
E |----|----|--3-|----|----|----|----|----|


Verse 3 
   C                             G
G |----|----|----|----|----|----|0---|----|
D |----|----|----|----|----|--23|--0-|---0|
A |3---|3--2|3---|3--2|3---|3---|----|--2-|
E |--3-|--3-|--3-|--3-|--3-|----|----|3---|

   G                        Coda C
G |0---|0---|----|----|----|----|----|----|
D |--0-|--0-|--0-|--0-|--0-|----|----|----|
A |----|----|----|---2|----|--02|3--2|3--2|
E |----|----|3---|3---|3---|3---|--3-|--3-|
                                       D.S.
                            Coda C
                         G |----|----|
                         D |----|----|
                         A |3---|3320|
                         E |--3-|----|

Tag 
   G                             C
G |---0|---0|---0|---0|---0|----|----|----|
D |--0-|--0-|--0-|----|--0-|----|----|----|
A |----|----|----|--2-|----|--02|3---|3320|
E |3---|3---|3---|3---|3---|3---|--3-|----|

   G         C         G
G |---0|----|----|----|---0|----|----|----|
D |--0-|----|----|----|--0-|----|--0-|---0|
A |----|----|0---|----|----|---2|2---|--2-|
E |3---|3-3-|----|----|3---|3-3-|----|3---|

   G         C
G |0---|----|----|----||
D |--2-|----|----|----||
A |----|--02|3---|3---||
E |----|3---|--3-|----||
 
 Comments (click here to add a non-facebook comment)
Home | FAQs | Privacy | Terms | Advertise | Contact
Top 100 Tab Sites